Oops, an error
Loading. Please wait.

Each Coming Night Tab

version 3
version 3

Whole song

Interactive

12,386 views 3 this week
no commentswrite comment
1 2 3 4 5
please rate
add to favorites
launch autoscroll
font size
0
reset
how to read this tab
guitar tuner
Tab Pro tools
  • play this tab
  • loop segment
  • change instrument
  • show fretboard
  • metronome
×
Best way to learn
"Each Coming Night"
Autoscroll
slow
fast
+/-
esc
set tempo
stop
Difficulty
Capo
intermediate
2nd fret
Title: Each Coming Night
Artist: Iron & Wine
Song: Each coming night

Capo 2. Emphasize the bass (thumb) line.

Verse: (Repeat many times)
E|---------------------------------|---------------------------------|
B|-------1-------1-------1---------|-------0-------0-------0---------|
G|---0-------0-------2-----------0-|---------------------------------|
D|-----2-------0-------2-----2-----|---0-------0-------0-------0---0-|
A|-3-------2-------0-----------0---|-----3-------3/5-----5-------0---|
E|-------------------------0-------|-1-------1-------3-------3-------|

Bridge (play once between verses):
  |---------------------------------|---------------------------------|
  |---------------0---------------0-|---------------0-----------------|
  |-------0---------------0---------|-------0---------------0---------|
  |---0-------0-------0-------0-----|---0-------0-------0-------0---0-|
  |-----3-------3-------3-------3/5-|-----5-------5-------5-------0---|
  |-1-------1-------1-------1-------|-3-------3-------3-------3-------|

Solo (In between second and third verse)

E|-2/0---------------------------------------|
B|------2--0/2--3--0--------0--2--3--2--0----|
G|-------------------0---2-----------------2-|
D|-------------------------------------------|
A|-------------------------------------------|
E|-------------------------------------------|

E|-2/0--------------------------------|
B|------2--0/2--3--0--------0--3--2---|
G|-------------------0---2----------0-|
D|------------------------------------|
A|------------------------------------|
E|------------------------------------|

(repeat twice)
comments
We did not receive enough feedback on this tab! Please rate:
print report bad tab
1 2 3 4 5
I want to post or [tab]
guest
You may want to rate the tab now too:
select rating
Please do not post tabs as comments. Select "correction" instead!