Oops, an error
Loading. Please wait.

Eden chords

1,040 views 9 this week
no commentswrite comment
1 2 3 4 5
x 3
add to favorites
×
Save as Personal and add changes to this tab that will be seen only by you. Learn more ›
×
You can save this tab as Personal to edit and correct it or add notes. All changes will be seen only by you. Learn more »
launch autoscroll
font size
0
reset
transpose
0
reset
simplify chords
display chords
guitar tuner
edit
Autoscroll
slow
fast
+/-
esc
set tempo
stop
Author
Difficulty
Strumming
There is no strumming pattern for this song yet. and get +5 IQ
Iron & Wine - Eden


*note- I play the Dadd4add9 just like C chord, but moved up 2 frets. 
For this one and the C, I usually add the low E string (fret 3 for the C and fret 5 for the Dadd4add9). 
Great, easy song from an amazing singer songwriter. Enjoy!


[intro] G, Dadd4add9, Em, C (x1)


There are other guitar parts, but I can't make them out

Played throughout:
e|---10--10--10--10--10--10--10--10--10--10--10--10-|---10--10--10--10--10--10--10--10--10--10--10--10-|
B|-12--12--12--12--12--12--12--12--12--12--12--12---|--------------------------------------------------|
G|--------------------------------------------------|--------------------------------------------------|
D|--------------------------------------------------|-12--12--12--12--12--12--12--12--12--12--12--12---|
A|--------------------------------------------------|--------------------------------------------------|
E|--------------------------------------------------|--------------------------------------------------|

e|---10--10--10--10--10--10--10--10--10--10--10--10-|---10--10--10--10--10--10--10--10--10--10--10--10-|
B|--------------------------------------------------|--------------------------------------------------|
G|-11--11--11---9---9---9--11--11--11---9---9---9---|-11--11--11--12--12--12--11--11--11--12--12--12---|
D|--------------------------------------------------|--------------------------------------------------|
A|--------------------------------------------------|--------------------------------------------------|
E|--------------------------------------------------|--------------------------------------------------|


G
Whisper in my ear

Dadd4add9
Everything my dear

Em                           C
Every wicked vision that you carry

G
On your naked breast

Dadd4add9
I believe that was your best

Em                           C
Apple pie invention since we married


G, Dadd4add9, Em, C (x1)


G
As God will be my judge

Dadd4add9
I'm not the man I was

Em                             C
Before I found you lying in the garden

G
Let's go buy some clothes

Dadd4add9
Some wool socks for your toes

Em                                    C
'Cause it might be much colder in the morning


[outro] G, Dadd4add9, Em, C (x2), end on G 

            
            
Suggest correction
Creating personal tab
Creating personal tab
You can edit any tab online and save it as your Personal.

You can edit, replace or remove any tab part or add personal notes – all changes will be seen only by you.

Personal tabs can be accessed anytime from any device, even offline.
Learn more »
Give kudos to tab author, rate the tab!
1 2 3 4 5
comments
print report bad tab
guest
You may want to rate the tab now too:
select rating
Wanna post a correction for this tab? Suggest correction