Oops, an error
Loading. Please wait.

Faded From The Winter Tab

version 3
version 3

Whole song

Interactive

2,743 views 1 this week
no commentswrite comment
1 2 3 4 5
please rate
add to favorites
launch autoscroll
font size
0
reset
how to read this tab
guitar tuner
Tab Pro tools
  • play this tab
  • loop segment
  • change instrument
  • show fretboard
  • metronome
×
Best way to learn
"Faded From The Winter"
Autoscroll
slow
fast
+/-
esc
set tempo
stop
Contributor
Difficulty
Tuning
intermediate
D A D G B E
I've seen other versions in standard tuning using 7-9, 5-7, 3-5, 10-12 as the tabs. 
are great...but for those who would like to play it a little bit easier, tune down to Drop D 
or without the Capo on fret I.

e|---------------------------------------------------------|e
B|---------------------------------------------------------|B
G|------------0-----------0-----------0-----------0--|G ---| 1st part of verse
D|------0-----------0-----------0-----------0--------------|D
A|---------9-----------9-----------9-----------9-----------|A
D|---9-----------9-----------9-----------9-----------------|D

e|---------------------------------------------------------|e
B|---------------------------------------------------------|B
G|------------0-----------0-----------0-----------0--|G ---| 2nd part of verse
D|------0-----------0-----------0-----------0--------------|D
A|---------7-----------7-----------7-----------7-----------|A
D|---7-----------7-----------7-----------7-----------------|D

e|---------------------------------------------------------|e
B|---------------------------------------------------------|B
G|------------0-----------0-----------0-----------0--|G ---| 3rd part of verse
D|------0-----------0-----------0-----------0--------------|D
A|---------5-----------5-----------5-----------5-----------|A
D|---5-----------5-----------5-----------5-----------------|D

e|---------------------------------------------------------|e
B|---------------------------------------------------------|B
G|------------0-----------0-----------0-----------0--|G ---| 1st part of chorus
D|-----0------------0-----------0-----------0--------------|D
A|--------12-----------12---------12-----------12----------|A
D|--12----------12----------12----------12-----------------|D

e|---------------------------------------------------------|e
B|---------------------------------------------------------|B
G|------------0-----------0-----------0-----------0--|G ---| 2nd part of chorus
D|------0-----------0-----------0-----------0--------------|D
A|---------7-----------7-----------7-----------7-----------|A
D|---7-----------7-----------7-----------7-----------------|D

e|---------------------------------------------------------|e
B|---------------------------------------------------------|B
G|------------0-----------0-----------0-----------0--|G ---| 3rd part of chorus
D|------0-----------0-----------0-----------0--------------|D
A|---------5-----------5-----------5-----------5-----------|A
D|---5-----------5-----------5-----------5-----------------|D


then repeat verse for a second time.

the sliding solo does not change in drop D and some of the other tabs already have it 
out so I won't bother doing it here.

hope you enjoy!
comments
We did not receive enough feedback on this tab! Please rate:
print report bad tab
1 2 3 4 5
I want to post or [tab]
guest
You may want to rate the tab now too:
select rating
Please do not post tabs as comments. Select "correction" instead!