Oops, an error
Loading. Please wait.

Fever Dream Tab

version 2
version 2

Interactive

12,267 views 15 this week
no commentswrite comment
1 2 3 4 5
worth learning
x 4
add to favorites
launch autoscroll
font size
0
reset
how to read this tab
guitar tuner
Tab Pro tools
  • play this tab
  • loop segment
  • change instrument
  • show fretboard
  • metronome
×
Best way to learn
"Fever Dream"
Autoscroll
slow
fast
+/-
esc
set tempo
stop
Contributor
Capo
4th fret
Capo on the 4th fret

Intro (x2):
e|---3------0-------3|-------0---------|-----------------|----------------|
B|--------0-------0--|-----0-----------|-3------3-------3|-------3--------|
G|------0-------0----|---0-------0-----|----0-------0----|---0-------0----|
D|---2--------2------|-2-------2---0---|------4-------4--|-----4-------4--|
A|-------------------|-----------------|-3--------3------|-3-------3------|
E|-------------------|-----------------|-----------------|----------------|

e|----------0--------|-----------------|-----------------|----------------|
B|--1-----------1----|-3------3--------|-3------3-------3|-------3--------|
G|-----0----------0--|----0-------0----|----0-0-----0-0--|---0-0-----0----|
D|-------2-----------|------4-------4--|-----------------|-------------0--|
A|--0---------0------|-2--------2------|-3--------3------|-3-------3------|
E|-------------------|-----------------|-----------------|----------------|

Chorus:
e|---------0--------|-------0-------|-2------0-------2|-------0------------|
B|--1----------1---1|---------------|-----------------|--------------------|
G|-----0---------0--|---0-------0---|----0-2-----0-2--|---0-2-----0-2------|
D|-------2----------|-----2-------2-|-0--------0------|-0-------0----------|
A|--0--------0------|-0-------0-----|-----------------|--------------------|
E|------------------|---------------|-----------------|--------------------3x 

e|---------0--------|-------0-------|---------0--------|-------------------|
B|--1--------------1|---------------|--0--------------0|---------1-------0-|
G|-----0-------0----|---0-------0---|-----0-------0----|---0---------0-----|
D|-------2-------2--|-----2-------2-|-------0-------0--|-----0h2-------0---|
A|--0--------0------|-0-------0-----|------------------|-------------------|
E|------------------|---------------|--3--------3------|-3---------3-------|

e|---------0-------5|-------5--------|
B|--0----------0----|---0-------0----|
G|-----0---------0--|-----0-------0--|
D|-------0----------|----------------|
A|------------------|----------------|
E|--3--------3------|-3-------3------|

(lead is played once over the verse):
e|--8~~~~---------|-8-9---9/11-9--8|-8/9---8-4~~~---|--4-6-6/8-6-4--|
B|----------------|----------------|----------------|---------------|
G|----------------|----------------|----------------|---------------|
D|----------------|----------------|----------------|---------------|
A|----------------|----------------|----------------|---------------|
E|----------------|----------------|----------------|---------------|

e|-4/6--4-1~~~----|--6---8-4---6---|-9~~~-----------|---------------|
B|----------------|----------------|----------------|---------------|
G|----------------|----------------|----------------|---------------|
D|----------------|----------------|----------------|---------------|
A|----------------|----------------|----------------|---------------|
E|----------------|----------------|----------------|---------------|

e|--8~~~~---------|-8--9--9/11--9-8|-8/9---8-4~~~---|--4-6-6/8-6-4--|
B|--6~~~~---------|----------------|----------------|---------------|
G|----------------|----------------|----------------|---------------|
D|----------------|----------------|----------------|---------------|
A|----------------|----------------|----------------|---------------|
E|----------------|----------------|----------------|---------------|

e|-4/6--4-1~~~----|--6---8-4---6---|-4~~~-----------|-------------6-|3~~~|
B|----------------|----------------|----------------|---------------|----|
G|----------------|----------------|----------------|---------------|----|
D|----------------|----------------|----------------|---------------|----|
A|----------------|----------------|----------------|---------------|----|
E|----------------|----------------|----------------|---------------|----|
end last time with:
e|----------0--------|-----------------|-----------------|
B|--1-----------1----|-3------3--------|-3~~-------------|
G|-----0----------0--|----0-------0----|-----------------|
D|-------2-----------|------4-------4--|-----------------|
A|--0---------0------|-2--------2------|-3~~-------------|
E|-------------------|-----------------|-----------------|

Some days her shape in the doorway 
Will speak to me 
A bird’s wing on the window 
Sometimes I’ll hear her when she’s sleeping 
Her fever dream 
A language on her face 

I want your flowers like babies want God’s love 
Or maybe as sure as tomorrow will come

Some days, like rain on the doorstep 
She’ll cover me 
With grace in all she offers 
Sometimes I'd like just to ask her 
What honest words 
She can’t afford to say, like 

I want your flowers like babies want God’s love 
Or maybe as sure as tomorrow will come
comments
print report bad tab
I want to post or [tab]
guest
You may want to rate the tab now too:
select rating
Please do not post tabs as comments. Select "correction" instead!