Oops, an error
Loading. Please wait.

Fever Dream Tab

version 3
version 3

Interactive

4,088 views 3 this week
no commentswrite comment
1 2 3 4 5
accurate
x 3
add to favorites
launch autoscroll
font size
0
reset
how to read this tab
guitar tuner
Tab Pro tools
  • play this tab
  • loop segment
  • change instrument
  • show fretboard
  • metronome
×
Best way to learn
"Fever Dream"
Autoscroll
slow
fast
+/-
esc
set tempo
stop
Contributor
Difficulty
intermediate
-----------------------------------------------------------------------------
                             Fever Dream  Iron and Wine
-----------------------------------------------------------------------------
The tab with the highest rating is good, but it is slightly off. 
It makes for a lot of unnecessary finger work and a few of the notes 
are not quite right. In contrast to the former tab the same slidable 
chord formation is used throughout the song, enabling ease of play.

!!Please note!! sometimes Samuel Beam leaves out notes in one place
then supplies them in another, and sometimes he plays the A string open at 
the end of a chord and sometimes he doesn t. You will just have to 
listen for those changes if you want to play the song exactly like the 
recording.

Tabbed by: shemdandy
Email:

Tuning: EADGBd
Capo: 2nd Fret

Intro/Verse:

d|-------0---------------0----------------0---------------0----------|
B|-7-------------0------------------3-------------0------------------|
G|---0-------0-------0-------0--------0-------0-------0-------0------|
D|-----9-------9-------9-------0--------4-------4-------4-------4----|
A|-7-------7-------7-------7--------3-------3-------3-------3--------|
E|-------------------------------------------------------------------|

d|-----0--------------0----------------0---------------0----------|
B|-1--------------3----------------------------3------------------|
G|---------0--------------0--------0-------0-------0-------0------|
D|---2-------2------4-------4--------5-------5-------5-------0----|
A|-0-----0--------2-----2--------3-------3-------3-------3--------|
E|----------------------------------------------------------------|

d|-------0---------------0----------------0---------------0----------|
B|-7-------------0------------------3-------------0------------------|
G|---0-------0-------0-------0--------0-------0-------0-------0------|
D|-----9-------9-------9-------0--------4-------4-------4-------0----|
A|-7-------7-------7-------7--------3-------3-------3-------3--------|
E|-------------------------------------------------------------------|

d|-------0--------------0--------------0---------------0----------|
B|-1----------------3--------------3-----------3------------------|
G|---0-------0--------------0--------------0-------0-------0------|
D|-----2-------2------4-------4------5-------5-------5-------0----|
A|-0-------0--------2-----2--------3-----3-------3-------3--------|
E|----------------------------------------------------------------|


Chorus:

d|-----0---------------0--------------0---------------0----------|
B|-1-----------1------------------5-----------0------------------|
G|---------0-------0-------0--------------0-------0-------0------|
D|---2-------2-------2-------2------7-------7-------7-------0----|
A|-0-----0-------0-------0--------5-----5-------5-------5--------|
E|---------------------------------------------------------------|

End of Chorus:

d|-----0---------------------------------0-------5-------5----------|
B|-0-----------0---------1-------0----------------------------------|
G|---------0-------0---------0-------0-------0-------0-------0------|
D|---0-------0-------0h2-------2-------2-------0-------0-------0----|
A|------------------------------------------------------------------|
E|-3-----3-------3---------3-------3-------3-------3-------3--------|

Lyrics:

Some days her shape in the doorway 
Will speak to me 
A birds wing on the window 
Sometimes I ll hear her when she s sleeping 
Her fever dream,
A language on her face. 

I want your flowers like babies 
want God s love or maybe 
as sure as tomorrow will come.

Some days, like rain on the doorstep 
She ll cover me 
With grace in all she offers 
Sometimes I d like just to ask her 
What honest words 
She can t afford to say, like 

I want your flowers like babies 
want God s love or maybe
as sure as tomorrow will come.

************************************

| /   slide up
| \   slide down
| h   hammer-on
| p   pull-off
| ~   vibrato
| +   harmonic
| x   Mute note
| b   Bend
| pb  Pre-bend
| br  Bend release
| pbr Pre-bend release
| brb Bend release bend

************************************

comments
We did not receive enough feedback on this tab! Please rate:
print report bad tab
1 2 3 4 5
I want to post or [tab]
guest
You may want to rate the tab now too:
select rating
Please do not post tabs as comments. Select "correction" instead!