Oops, an error
Loading. Please wait.

Flightless Bird American Mouth Tab

version 4
version 4
20,958 views 1 this week
no commentswrite comment
1 2 3 4 5
please rate
add to favorites
launch autoscroll
font size
0
reset
how to read this tab
guitar tuner
Tab Pro tools
  • play this tab
  • loop segment
  • change instrument
  • show fretboard
  • metronome
×
Best way to learn
"Flightless Bird American Mouth"
Autoscroll
slow
fast
+/-
esc
set tempo
stop
Contributor
Song:		Flightless bird, American mouth	
Band/Singer:	Iron & Wine
Author:		LD
Reference:	http://www.mediafire.com/?wdnwygdted4

Tuning:	EADGBE
Capo:	3
Chords:	C	[CEG]	: 032010;
	Em	[EGB]	: 022000;
	F	[FAC]	: 133211;
	G	[GBD]	: 320003;
	Gadd11	[GBDC]	: x2001x;
	Am	[ACE]	: 002210;


Verse 1:

|| V ^ v ^ v ^ V ^ v ^ v ^ | V ^ v ^ v ^ V ^ v ^ v ^ | V ^ v ^ v ^ V ^ v ^ v ^ |
||-------------------------|-------------------------|-------------------------|
||-----1---1-------1---1---|-----1---1-------1---1---|-----1---1-------1---1---|
||-----0---0-------0---0---|-----0---0-------0---0---|-----2---2-------2---2---|
||-------------0h2---------|-------------------------|-------------0h2---------|
||-3-----------------------|-3-----------2-----------|-0-----------------------|
||-------------------------|-------------------------|-------------------------|

|| V ^ v ^ v ^ V ^ v ^ v ^ | V ^ v ^ v ^ V ^ v ^ v ^ | V ^ v ^ v ^ V ^ v ^ v ^ |
||-------------------------|-------------------------|-------------------------|
||-----1---1-------0---0---|-----1---1-------1---1---|-----1---1-------1---1---|
||-----2---2-------0---0---|-----2---2-------2---2---|-----2---2-------2---2---|
||-------------------------|-------------------------|-------------------------|
||-0-----------------------|-------------3-----------|-------------3-----------|
||-------------0-----------|-1-----------------------|-1-----------------------|

|| V ^ v ^ v ^ V ^ v ^ v ^ | V ^ v ^ v ^ V ^ v ^ v ^ ||
||-------------------------|-------------------------||
||-----0---0-------0---0---|-----0---0---------------||
||-----0---0-------0---0---|-----0---0---------------||
||-------------------------|-------------------------||
||-------------0h2---------|-----------------0---2---||
||-3-----------------------|-3-----------3-----------||


|| V ^ v ^ v ^ V ^ v ^ v ^ | V ^ v ^ v ^ V ^ v ^ v ^ | V ^ v ^ v ^ V ^ v ^ v ^ |
||-------------------------|-------------------------|-------------------------|
||-----1---1-------1---1---|-----1---1-------1---1---|-----1---1-------1---1---|
||-----0---0-------0---0---|-----0---0-------0---0---|-----2---2-------2---2---|
||-------------0h2---------|-------------------------|-------------0h2---------|
||-3-----------------------|-3-----------2-----------|-0-----------------------|
||-------------------------|-------------------------|-------------------------|

|| V ^ v ^ v ^ V ^ v ^ v ^ | V ^ v ^ v ^ V ^ v ^ v ^ | V ^ v ^ v ^ V ^ v ^ v ^ |
||-------------------------|-------------------------|-------------------------|
||-----1---1-------0---0---|-----1---1-------1---1---|-----1---1-------1---1---|
||-----2---2-------0---0---|-----2---2-------2---2---|-----2---2-------2---2---|
||-------------------------|-------------------------|-------------------------|
||-0-----------------------|-------------3-----------|-------------3-----------|
||-------------0-----------|-1-----------------------|-1-----------------------|

|| V ^ v ^ v ^ V ^ v ^ v ^ | V ^ v ^ v ^ V ^ v ^ v ^ ||
||-------------------------|-------------------------||
||-----0---0-------0---0---|-------------------------||
||-----0---0-------0---0---|-------------------------||
||-------------------------|-------------------------||
||-------------0h2---------|-----------------0---2---||
||-3-----------------------|-3-----------3-----------||


Chorus: 

|| V ^ v ^ v ^ V ^ v ^ v ^ | V ^ v ^ v ^ V ^ v ^ v ^ | V ^ v ^ v ^ V ^ v ^ v ^ |
||-------------------------|-------------------------|-------------------------|
||-----1---1-------1---1---|-----1---1-------1---1---|-----1---1-------1---1---|
||-----0---0-------0---0---|-----0---0-------0---0---|-----2---2-------2---2---|
||-------------0h2---------|-------------------------|-------------0h2---------|
||-3-----------------------|-3-----------2-----------|-0-----------------------|
||-------------------------|-------------------------|-------------------------|

|| V ^ v ^ v ^ V ^ v ^ v ^ | V ^ v ^ v ^ V ^ v ^ v ^ | V ^ v ^ v ^ V ^ v ^ v ^ |
||-------------------------|-------------------------|-------------------------|
||-----1---1-------0---0---|-----1---1-------1---1---|-----1---1-------1---1---|
||-----2---2-------0---0---|-----2---2-------2---2---|-----2---2-------2---2---|
||-------------------------|-------------------------|-------------------------|
||-0-----------------------|-------------3-----------|-------------3-----------|
||-------------0-----------|-1-----------------------|-1-----------------------|

|| V ^ v ^ v ^ V ^ v ^ v ^ | V ^ v ^ v ^ V ^ v ^ v ^ ||
||-------------------------|-------------------------||
||-----0---0-------0---0---|-----0---0---------------||
||-----0---0-------0---0---|-----0---0---------------||
||-------------------------|-------------------------||
||-------------0h2---------|-----------------0---2---||
||-3-----------------------|-3-----------3-----------||


|| V ^ v ^ v ^ V ^ v ^ v ^ | V ^ v ^ v ^ V ^ v ^ v ^ | V ^ v ^ v ^ V ^ v ^ v ^ |
||-------------------------|-------------------------|-------------------------|
||-----1---1-------1---1---|-----1---1-------1---1---|-----1---1-------1---1---|
||-----0---0-------0---0---|-----0---0-------0---0---|-----2---2-------2---2---|
||-------------0h2---------|-------------------------|-------------0h2---------|
||-3-----------------------|-3-----------2-----------|-0-----------------------|
||-------------------------|-------------------------|-------------------------|

|| V ^ v ^ v ^ V ^ v ^ v ^ | V ^ v ^ v ^ V ^ v ^ v ^ | V ^ v ^ v ^ V ^ v ^ v ^ |
||-------------------------|-------------------------|-------------------------|
||-----1---1-------0---0---|-----1---1-------1---1---|-----1---1-------1---1---|
||-----2---2-------0---0---|-----2---2-------2---2---|-----2---2-------2---2---|
||-------------------------|-------------------------|-------------------------|
||-0-----------------------|-------------3-----------|-------------3-----------|
||-------------0-----------|-1-----------------------|-1-----------------------|

|| V ^ v ^ v ^ V ^ v ^ v ^ | V ^ v ^ v ^ V ^ v ^ v ^ ||
||-------------------------|-------------------------||
||-----0---0-------0---0---|-------------------------||
||-----0---0-------0---0---|-------------------------||
||-------------------------|-------------------------||
||-------------0h2---------|-----------------0---2---||
||-3-----------------------|-3-----------3-----------||


Verse 2 and Chorus and Ending:

   C                                                   Am                                
|| V ^ v ^ v ^ V ^ v ^ v ^ | V ^ v ^ v ^ V ^ v ^ v ^ | V ^ v ^ v ^ V ^ v ^ v ^ |
||-0---0-0-0-0-0---0-0-0-0-|-0---0-0-0-0-x---x-x-x-x-|-0---0-0-0-0-0---0-0-0-0-|
||-1---1-1-1-1-1---1-1-1-1-|-1---1-1-1-1-1---1-1-1-1-|-1---1-1-1-1-1---1-1-1-1-|
||-0---0-0-0-0-0---0-0-0-0-|-0---0-0-0-0-0---0-0-0-0-|-2---2-2-2-2-2---2-2-2-2-|
||-2---2-2-2-2-0h2-2-2-2-2-|-2---2-2-2-2-0---0-0-0-0-|-2---2-2-2-2-0h2-2-2-2-2-|
||-3---3-3-3-3-3---3-3-3-3-|-3---3-3-3-3-2---2-2-2-2-|-0---0-0-0-0-0---0-0-0-0-|
||-0---0-0-0-0-0---0-0-0-0-|-0---0-0-0-0-x---x-x-x-x-|-0---0-0-0-0-0---0-0-0-0-|

                 Em          F
|| V ^ v ^ v ^ V ^ v ^ v ^ | V ^ v ^ v ^ V ^ v ^ v ^ | V ^ v ^ v ^ V ^ v ^ v ^ |
||-0---0-0-0-0-0---0-0-0-0-|-1---1-1-1-1-1---1-1-1-1-|-1---1-1-1-1-1---1-1-1-1-|
||-1---1-1-1-1-1---0-0-0-0-|-1---1-1-1-1-1---1-1-1-1-|-1---1-1-1-1-1---1-1-1-1-|
||-2---2-2-2-2-2---0-0-0-0-|-2---2-2-2-2-2---2-2-2-2-|-2---2-2-2-2-2---2-2-2-2-|
||-2---2-2-2-2-2---2-2-2-2-|-3---3-3-3-3-3---3-3-3-3-|-3---3-3-3-3-3---3-3-3-3-|
||-0---0-0-0-0-0---2-2-2-2-|-3---3-3-3-3-3---3-3-3-3-|-3---3-3-3-3-3---3-3-3-3-|
||-0---0-0-0-0-0---0-0-0-0-|-1---1-1-1-1-1---1-1-1-1-|-1---1-1-1-1-1---1-1-1-1-|

   G
|| V ^ v ^ v ^ V ^ v ^ v ^ | V ^ v ^ v ^ V ^ v ^ v ^ ||
||-1---1-1-1-1-1---1-1-1-1-|-1---1-1-1-1(1)-(1)-(1)--||
||-0---0-0-0-0-0---0-0-0-0-|-0---0-0-0-0(0)-(0)-(0)--||
||-0---0-0-0-0-0---0-0-0-0-|-0---0-0-0-0(0)-(0)-(0)--||
||-0---0-0-0-0-0---0-0-0-0-|-0---0-0-0-0-0---0---0---||
||-2---2-2-2-2-0h2-2-2-2-2-|-2---2-2-2-2-x---0---2---||
||-3---3-3-3-3-3---3-3-3-3-|-3---3-3-3-3-3---0---0---||

   C                                                   Am                                
|| V ^ v ^ v ^ V ^ v ^ v ^ | V ^ v ^ v ^ V ^ v ^ v ^ | V ^ v ^ v ^ V ^ v ^ v ^ |
||-0---0-0-0-0-0---0-0-0-0-|-0---0-0-0-0-x---x-x-x-x-|-0---0-0-0-0-0---0-0-0-0-|
||-1---1-1-1-1-1---1-1-1-1-|-1---1-1-1-1-1---1-1-1-1-|-1---1-1-1-1-1---1-1-1-1-|
||-0---0-0-0-0-0---0-0-0-0-|-0---0-0-0-0-0---0-0-0-0-|-2---2-2-2-2-2---2-2-2-2-|
||-2---2-2-2-2-0h2-2-2-2-2-|-2---2-2-2-2-0---0-0-0-0-|-2---2-2-2-2-0h2-2-2-2-2-|
||-3---3-3-3-3-3---3-3-3-3-|-3---3-3-3-3-2---2-2-2-2-|-0---0-0-0-0-0---0-0-0-0-|
||-0---0-0-0-0-0---0-0-0-0-|-0---0-0-0-0-x---x-x-x-x-|-0---0-0-0-0-0---0-0-0-0-|

                 Em          F
|| V ^ v ^ v ^ V ^ v ^ v ^ | V ^ v ^ v ^ V ^ v ^ v ^ | V ^ v ^ v ^ V ^ v ^ v ^ |
||-0---0-0-0-0-0---0-0-0-0-|-1---1-1-1-1-1---1-1-1-1-|-1---1-1-1-1-1---1-1-1-1-|
||-1---1-1-1-1-1---0-0-0-0-|-1---1-1-1-1-1---1-1-1-1-|-1---1-1-1-1-1---1-1-1-1-|
||-2---2-2-2-2-2---0-0-0-0-|-2---2-2-2-2-2---2-2-2-2-|-2---2-2-2-2-2---2-2-2-2-|
||-2---2-2-2-2-2---2-2-2-2-|-3---3-3-3-3-3---3-3-3-3-|-3---3-3-3-3-3---3-3-3-3-|
||-0---0-0-0-0-0---2-2-2-2-|-3---3-3-3-3-3---3-3-3-3-|-3---3-3-3-3-3---3-3-3-3-|
||-0---0-0-0-0-0---0-0-0-0-|-1---1-1-1-1-1---1-1-1-1-|-1---1-1-1-1-1---1-1-1-1-|

   G
|| V ^ v ^ v ^ V ^ v ^ v ^ | V ^ v ^ v ^ V ^ v ^ v ^ ||
||-1---1-1-1-1-1---1-1-1-1-|-1---1-1-1-1(1)-(1)-(1)--||
||-0---0-0-0-0-0---0-0-0-0-|-0---0-0-0-0(0)-(0)-(0)--||
||-0---0-0-0-0-0---0-0-0-0-|-0---0-0-0-0(0)-(0)-(0)--||
||-0---0-0-0-0-0---0-0-0-0-|-0---0-0-0-0-0---0---0---||
||-2---2-2-2-2-0h2-2-2-2-2-|-2---2-2-2-2-x---0---2---||
||-3---3-3-3-3-3---3-3-3-3-|-3---3-3-3-3-3---0---0---||


Legend:

| /  slide up
| \  slide down
| h  hammer-on
| p  pull-off
| ~  vibrato
| +  harmonic
| x  Mute note
===============================================================================
comments
We did not receive enough feedback on this tab! Please rate:
print report bad tab
1 2 3 4 5
I want to post or [tab]
guest
You may want to rate the tab now too:
select rating
Please do not post tabs as comments. Select "correction" instead!