Oops, an error
Loading. Please wait.

Flightless Bird American Mouth Tab

version 5
version 5
2,871 views 1 this week
no commentswrite comment
1 2 3 4 5
please rate
add to favorites
launch autoscroll
font size
0
reset
how to read this tab
guitar tuner
Tab Pro tools
  • play this tab
  • loop segment
  • change instrument
  • show fretboard
  • metronome
Autoscroll
slow
fast
+/-
esc
set tempo
stop
Contributor
These tabs are played during the all song without interruptions
Enjoy...


E---------------------------------------------------------------------------------------------|
H-------3--3-------3--3-------3--3-------3--3-------3--3-------3--3-------3--3-------3--3-----|
G-------2--2-------2--2-------2--2-------2--2-------2--2-------2--2-------2--2-------2--2-----|
D--------------4-------------------------------------------4----------------------------------|
A---5---------------------5----------4----------2---------------------2-----------------------|
E--------------------------------------------------------------------------------5------------|

I was a quick wet boy, diving too deep for coins


E---------------------------------------------------------------------------------------------|
H-------3--3-------3--3-------3--3-------3--3-------5--5-------5--5-------5--5-------5--5-----|
G-------4--4-------4--4-------4--4-------4--4-------6--6-------6--6-------6--6-------6--6-----|
D-------------------------4-------------------------------------------6-----------------------|
A--------------5---------------------5---------------------7---------------------7------------|
E---3-------------------------------------------5---------------------------------------------|

All of your street light eyes wide on my plastic toys


Then when the cops closed the fair, I cut my long baby hair
Stole me a dog-eared map and called for you everywhere
Have I found you
Flightless bird, jealous, weeping or lost you, american
mouth
Big pill looming

Now I'm a fat house cat
Nursing my sore blunt tongue
Watching the warm poison rats curl through the wide fence
cracks
Pissing on magazine photos
Those fishing lures thrown in the cold
And clean blood of Christ mountain stream
Have I found you
Flightless bird, grounded, bleeding or lost you, american
mouth
Big pill stuck going down
comments
We did not receive enough feedback on this tab! Please rate:
print report bad tab
1 2 3 4 5
I want to post or [tab]
guest
You may want to rate the tab now too:
select rating
Please do not post tabs as comments. Select "correction" instead!