Oops, an error
Loading. Please wait.

Gray Stables Chords

5,176 views 3 this week
1 commentread comment
1 2 3 4 5
excellent!
x 4
add to favorites
launch autoscroll
font size
0
reset
transpose
0
reset
display chords
guitar tuner
Tab Pro tools
  • play this tab
  • loop segment
  • change instrument
  • show fretboard
  • metronome
×
Best way to learn
"Gray Stables"
Autoscroll
slow
fast
+/-
esc
set tempo
stop
Contributor
Difficulty
novice
-------------------------------------------------------------------------------
			     IRON & WINE - Gray Stables
-------------------------------------------------------------------------------
Tabbed by: Jamie Chalmers
Email: jamiechalmers@live.co.uk

Tuning: Standard (No capo)


Hey guys, first tab so hope you like it. Couldn't believe there was nothing here
its such a great song. Some of the lyrics may be wrong. Also, listening to the picked 
in
song, I have a feeling he may use a capo and play different chords shapes - not entirely 
But these chords work great for playing along or playing the song yourself :)

Chords used:

Am - x02210
G  - 35500x
F  - 13300x

Am
Gray lady, I could see you through the mosses
			G
laid, shameless in the sun
Am
my lady with her porcelain and her weightless
		     G
face, pleasing everyone

F	G		Am
gray stables and the horses of the righteous
F	G	     Am
pray daily for the brave

Am
lady, you were gorgeous in your weakness
		     G
wet flowers on the ground
Am
my lady never told me of her sadness
			G
bones floating in the sound

Instrumental:

     F      G               F      G
e|----------------------|-----------------------|
b|----------------------|-----------------------|
g|-7s9--7-9s10-9-7s5----|-7s9--7-9s10-9-7s5-----|
d|----------------------|-------------------5s7-|
a|----------------------|-----------------------|
e|-------------------x2-|-----------------------|

Am
gray lady could you see me in the darkness
			G
wait, nameless like a stone
Am
my lady with her watches by the mattress
		    G
bathes lately all alone

F	G		Am
gray stables and the horses of the righteous
F	G	     Am
pray daily for the brave

Am
lady, would you love me if i left her
			G
laid breathless in the sun
Am
my lady, like a teacup on the counter
		   G
frail, pleasing everyone

Instrumental:

     F      G               F      G
e|----------------------|-----------------------|
b|----------------------|-----------------------|
g|-7s9--7-9s10-9-7s5----|-7s9--7-9s10-9-7s5-----|
d|----------------------|-------------------5s7-|
a|----------------------|-----------------------|
e|-------------------x2-|-----------------------|

Finish on Am

************************************

 s = slide

************************************
comments
print report bad tab
1 comment total.
0 reply
jubblernut wrote on June 28 2013, 12:14 pm

You've got the right chords in the right places, but the fingering should look like this:
Am:
e|---------------------------------------------------|
b|---------------------------------------------------|
g|----------------------0----------------------------|
d|-----------0----------------------0----------------|
a|----3-----------3-----------3-------------3------3-|
e|-5-----5-----5-----5-----5-----5------5-------5----|

e|---------------------------------------------------|
b|---------------------------------------------------|
g|----------------------0----------------------------|
d|-----------0----------------------0----------------|
a|----2-----------2-----------2-------------2------2-|
e|-3-----3-----3-----3-----3-----3------3-------3----|

Chorus:
e|---------------------------------------------------|
b|---------------------------------------------------|
g|-----------0----------------------0----------------|
d|---------------------------------------------------|
a|----3-----------3-----3-----2-------------2------2-|
e|-1-----1-----1-----1-----3-----3------3-------3----| then back to the main A bar

I want to post or [tab]
guest
You may want to rate the tab now too:
select rating
Please do not post tabs as comments. Select "correction" instead!