Oops, an error
Loading. Please wait.

Half Moon Tab

version 2
version 2

Whole song

11,054 views 12 this week
no commentswrite comment
1 2 3 4 5
accurate
x 3
add to favorites
launch autoscroll
font size
0
reset
how to read this tab
guitar tuner
Tab Pro tools
  • play this tab
  • loop segment
  • change instrument
  • show fretboard
  • metronome
×
Best way to learn
"Half Moon"
Autoscroll
slow
fast
+/-
esc
set tempo
stop
Difficulty
intermediate
This is my first tab, and I'm not going to guide you through the whole thing like you
babies. The song is simple, so it should be easy to understand without me telling you
every little detail. The amount of strums isn't going to be correct FYI, there just 
there for guidelines. Listen to the song for help.

Tuning: DADGAD
Capo - 2nd
Tabs relevant to the capo

Intro

D---0---0-0-0-0-0-0-0-0-0-0----|
A---0---0-0-0-0-0-0-0-0h2p0----|
G---2/4-4-0-0-0-0-0-0-0-0-0----|   Repeat this 4 times.
D---2/4-4-4-4-4-4-4-4-4-4-4----|
A---0---x-5-5-5-5-5-5-5-5-5----|
D---0---x-0-0-0-0-0-0-0-0-0----|


Verse


D---0---0-0-0-0-0-0-0-0-0-0----|
A---0---0-0-0-0-0-0-0-0h2p0----|
G---2/4-4-0-0-0-0-0-0-0-0-0----|   Repeat twice then....
D---2/4-4-4-4-4-4-4-4-4-4-4----|
A---0---x-5-5-5-5-5-5-5-5-5----|
D---0---x-0-0-0-0-0-0-0-0-0----|


D--0-0-0-0-0-0-0--0-0-0-0-0-0---------------|
A--0-0-0-0-0-0-0--0-0-0-0-0-0---------------|
G--0-0-0-0-0-0-0--0-0-0-0-0-0---------------|   Repeat twice then....
D--0-0-0-0-0-0-0--0-0-0-2-2-2---------------|
A--5-5-5-5-5-5-5--2-2-2-2-2-2---------------|
D--5-5-5-5-5-5h4--2-2-2p0-0-0---------------|



That's literally what the song consists of, plus a few extra things here and there. But
those are the basics. Only took a half hour to figure out from scratch, so with this,
I'm sure you'll all get it quickly.



Questions, concerns?

Jmackey217@gmail.com

Feel free to ask.
comments
We did not receive enough feedback on this tab! Please rate:
print report bad tab
1 2 3 4 5
I want to post or [tab]
guest
You may want to rate the tab now too:
select rating
Please do not post tabs as comments. Select "correction" instead!