Oops, an error
Loading. Please wait.

Half Moon tab

version 3
version 3

Whole song

343 views 9 this week
no commentswrite comment
1 2 3 4 5
3 more votes to show rating
add to favorites
×
Save as Personal and add changes to this tab that will be seen only by you. Learn more ›
×
You can save this tab as Personal to edit and correct it or add notes. All changes will be seen only by you. Learn more »
launch autoscroll
font size
0
reset
how to read this tab
guitar tuner
edit
Autoscroll
slow
fast
+/-
esc
set tempo
stop
Tuning: DAGDAD (celtic Tuning)

e|-------0---------------------------------------------------------------------|
B|------------------------0----------------------------------------------------|
G|0-------------0--------------------------------------------------------------|
D|----4--------------4---------------------------------------------------------|  
A|-----------------------------------------------------------------------------|
E|0---------0------------------------------------------------------------------|

ooo And the e...
e|------0----------------------------------------------------------------------|
B|-------------------0---------------------------------------------------------|
G|0-----------0----------------------------------------------------------------| 
D|----5----------5-------------------------------------------------------------|
A|-----------------------------------------------------------------------------|
E|5--------5-------------------------------------------------------------------|

evening
e|--------0--------------------------------------------------------------------|
B|----------------------0------------------------------------------------------|
G|0-------------0--------------------------------------------------------------| 
D|------5-----------5----------------------------------------------------------|
A|-----------------------------------------------------------------------------|
E|4----------4-----------------------------------------------------------------|

glow leaving
e|------0---------------------------0------------------------------------------|
B|-------------------0--------------------------------0------------------------|
G|0-----------0-------------0---------------0----------------------------------| 
D|----2-----------2-------------2----------------2-----------------------------|
A|-----------------------------------------------------------------------------|
E|2--------2------------2----------------2-------------------------------------|

Lyrics:
Halfway home in the hilltop trees
And all our footprints in the snow
And the evening glow leaving
Low night noise in the wintertime
I wake beside you on the floor
Counting your breathing
Cause I can't see nothing in this half moon
Lay me down if i should lose you.
Halfway-working on a worn-out house
And all our friends the ragged crows
And aching bones whining.
Where are we when the twilight comes?
The dark of valley and the breeze
And the frozen leaves chiming?
Cause I can't see nothing in this half moon
Lay me down if i should lose you...
Suggest correction
Creating personal tab
Creating personal tab
You can edit any tab online and save it as your Personal.

You can edit, replace or remove any tab part or add personal notes – all changes will be seen only by you.

Personal tabs can be accessed anytime from any device, even offline.
Learn more »
Give kudos to tab author, rate the tab!
1 2 3 4 5
comments
print report bad tab
guest
You may want to rate the tab now too:
select rating
Wanna post a correction for this tab? Suggest correction