Oops, an error
Loading. Please wait.

House By The Sea Tab

version 2
version 2

Whole song

3,250 views 21 this week
no commentswrite comment
1 2 3 4 5
please rate
add to favorites
launch autoscroll
font size
0
reset
how to read this tab
guitar tuner
Tab Pro tools
  • play this tab
  • loop segment
  • change instrument
  • show fretboard
  • metronome
×
Best way to learn
"House By The Sea"
Autoscroll
slow
fast
+/-
esc
set tempo
stop
Contributor
Difficulty
advanced
House By the Sea - Iron & Wine - The Shepherd’s Dog
Tuning:  Standard
Capo on First Fret
Tabbed by: Michael Genese

It's my 2nd tab, and I'm pretty sure this is 90% correct, maybe more. Please rate, 
and contact me with any corrections! mgenese10201@yahoo.com

Main Theme:
----------|----0--------------|----0--------------|-----3--5--3-----|
--3--0--3-|-5-----5---5--3--0-|-3---------3--0--3-|--5--5--7--5--5--|
--2--2--2-|-4---------4--2--2-|-2-----2---2--2--2-|--4-----------4--|
----------|-------------------|-------0-----------|-----------------|
----------|-------------------|------(0)----------|-----------------|
----------|-------------------|-------------------|-----------------|

|-----0------|
|--3---------|
|--2-----2---|
|--------0---| Repeat throughout whole song
|-------(0)--|
|------------|
|------------|

For theme, I start off with the fingers that match the fret #'s (Third on B, 2nd on G) 
use my first finger in Bar 4 when I have to hit the E string, it's a lot easier.


First Solo:
|--0h3--5s7--5--3--0--|-------0-------0-------0-|--0h3--5s7--5--3--0--|
|---------------------|--0h3-----0h3-----0h3----|---------------------|
|---------------------|-------------------------|---------------------|
|---------------------|-------------------------|---------------------|
|---------------------|-------------------------|---------------------|
|---------------------|-------------------------|---------------------|

|--8--7--5---3--2--0-|
|--------------------|
|--------------------|
|--------------------| X2, except the second time, end on this:
|--------------------|
|--------------------|

|--10--8--7---5--3--2--0-|
|------------------------|
|------------------------|
|------------------------|
|------------------------|
|------------------------|


After the First solo, play this 4 times:
|-------------|
|--5----3-----|
|--4----2-----|
|-------------|
|-------------|
|-------------|


Main Theme again for a while

The Second Solo is the same as the first, but then there is this other part after that 
into the ending:
|-10--10--10--10--8--7-|-----7--------|-10--10--10--10--8--7-|
|----------------------|-10-----10----|----------------------|
|----------------------|--------------|----------------------|
|----------------------|--------------|----------------------|
|----------------------|--------------|----------------------|
|----------------------|--------------|----------------------|

|-----12--10--8--7--|
|-10----------------|
|-------------------| X2
|-------------------|
|-------------------|
|-------------------|


Ending Chord: Em

There! Enjoy! Again, please contact if you have any comments, corrections, etc.
comments
We did not receive enough feedback on this tab! Please rate:
print report bad tab
1 2 3 4 5
I want to post or [tab]
guest
You may want to rate the tab now too:
select rating
Please do not post tabs as comments. Select "correction" instead!