Oops, an error
Loading. Please wait.

Innocent Bones Tab

version 1
version 1

Whole song

6,668 views 9 this week
no commentswrite comment
1 2 3 4 5
accurate
x 4
add to favorites
launch autoscroll
font size
0
reset
how to read this tab
guitar tuner
Tab Pro tools
  • play this tab
  • loop segment
  • change instrument
  • show fretboard
  • metronome
×
Best way to learn
"Innocent Bones"
Autoscroll
slow
fast
+/-
esc
set tempo
stop
Contributor
Difficulty
Capo
novice
4th fret
Song Title: Innocent Bones
Artist: Iron and Wine
Tuning: DADGAE
Capo on 4th Fret

Intro/Verse:

E------------------------|  
A-----0-----0-----0------| 
G-------0-----0----------|
D---------2--------------|
A---------------3--------|
D---3--------------------|

Chorus:

E--------------------------------------------------------|  Repeat verse 2 times  
A-----0-----0-----0---0-----0-----0----------------------| after chorus.
G-------0-----0---------0-----0--------------------------| 
D---------3---------------5------------------------------| Then play chorus once 
A---1-----------1---3-----------3------------------------| more.
D--------------------------------------------------------|

Interlude after 2nd chorus

E------------------------------------------|  Repeat verse 2 times after interlude.
A-----0-----0-----0---0-----0-----0--------|
G-------0-----0---------0-----0------------|  Then play interlude once more.
D---------2---------------2----------------|
A---------------0---------------0----------|
D---0---------------0----------------------|



You'll have to listen to the song a couple of times to get it right, but that's pretty much it.
comments
print report bad tab
I want to post or [tab]
guest
You may want to rate the tab now too:
select rating
Please do not post tabs as comments. Select "correction" instead!