Oops, an error
Loading. Please wait.

Jezebel tab

version 2
version 2

Whole song

86,085 views 60 this week
9 commentsread comments
1 2 3 4 5
x 31
add to favorites
×
Save as Personal and add changes to this tab that will be seen only by you. Learn more ›
×
You can save this tab as Personal to edit and correct it or add notes. All changes will be seen only by you. Learn more »
launch autoscroll
font size
0
reset
how to read this tab
guitar tuner
edit
Autoscroll
slow
fast
+/-
esc
set tempo
stop
Capo on 2nd fret.

[Guitar 1]
E|--5-3-0-3--8-3-0-3--7-3---3--5-3-0-3--|
B|------------------------3-------------|
G|--------------------------------------|
D|--------------------------------------|
A|--------------------------------------|
E|--------------------------------------|

[Guitar 2]
E|--------0---------------3--------------------------------------------|
B|--1---------------1-------------0---------0--------------------------|
G|----2-------2---0---0-------0-------------------0---------0----------|
D|------2---------------2-------2-----0-------0---------0-------0---0--|
A|--0-------0---2---3-------3-----------2-------2---------3------------|
E|----------------------------------3-------3---------1-------1---3----|

[Riff] 
(During intro and outro)
E|-------------------------------------------------------------------|
B|-------------------------------------------------------------------|
G|-----9---9------7------5----7p5-4/5----7---9p7-6/7----5---7p5-4/5--|
D|--7----7---7--5---5--2---2-----------5---5----------3---3----------|
A|-------------------------------------------------------------------|
E|-------------------------------------------------------------------|

E|-------------------------------------------------------------------|
B|-------------------------------------------------------------------|
G|-----9---9------7------5----7p5-4/5----7---7-9-7------5---7p5-4/5--|
D|--7----7---7--5---5--2---2-----------5---5----------3---3----------|
A|-------------------------------------------------------------------|
E|-------------------------------------------------------------------|

[Solo]
E|--------------------------------------------------|
B|--5-5-5-3---5-b5-3---1h3-5-3-1-1h3-1-----1-3-3/5--|
G|----------5--------5-----------------0-2----------|
D|--------------------------------------------------|
A|--------------------------------------------------|
E|--------------------------------------------------|

E|-------------------------------------------------|
B|--5-5-3---5-b5-3---1h3-5-3-1-1h3-1-----1-3----1--|
G|--------5--------5-----------------0-2-----0h2---|
D|-------------------------------------------------|
A|-------------------------------------------------|
E|-------------------------------------------------|

E|-------------------------------------------------|
B|----------------1-3-5-b5-3-1h3-b5-1-3-1-----1-3--|
G|--0h2p0-------2-------------------------0-2------|
D|--------0h2p0------------------------------------|
A|-------------------------------------------------|
E|-------------------------------------------------|

E|--------------------------------------------------|
B|--5-5-5-3---5-b5-3---1h3-5-3-1-1h3-1-----1-3------|
G|----------5--------5-----------------0-2-----0/2--|
D|--------------------------------------------------|
A|--------------------------------------------------|
E|--------------------------------------------------|

[2nd To Last Verse]
E|---------------------------------------|
B|---------0---------1-----------0-------|
G|---------------------------------------|
D|--------------3------------------------|
A|--2-3----2---------0----2-3---------3--|
E|--------------1----------------3----1--|


************************************

| p  Pull-off
| /  Slide up
| h  Hammer-on
| b  Bend

************************************

            
            
Suggest correction
Creating personal tab
Creating personal tab
You can edit any tab online and save it as your Personal.

You can edit, replace or remove any tab part or add personal notes – all changes will be seen only by you.

Personal tabs can be accessed anytime from any device, even offline.
Learn more »
comments
print report bad tab
9 comments total. Showing first comments.
+3 reply
Niminah 41 Jan 05, 2009 10:51 AM

Good tab, but I think that the Guitar 2 part can be more accurately played like this:
E|--------0---------------3--------------------------------------------|
B|--1---------------1-------------1p0-------0--------------------------|
G|----2-------2---0---0-------0-------0---------0---0-------0-------0--|
D|------2---------------2-------2-------0---------------0-------0------|
A|--0-------0---2---3-------3-----------------0---2-------3-------3----|
E|----------------------------------3-----------------1-------1--------|

0 reply
Niminah 41 Jan 05, 2009 10:54 AM

Good tab, but I think that the Guitar 2 part can be more accurately played like this:
E|--------0---------------3--------------------------------------------|
B|--1---------------1-------------1p0-------0--------------------------|
G|----2-------2---0---0-------0-------0---------0---0-------0-------0--|
D|------2---------------2-------2-------0---------------0-------0------|
A|--0-------0---2---3-------3-----------------0---2-------3-------3----|
E|----------------------------------3-----------------1-------1--------|

0 reply
Cascyth 21 Feb 15, 2009 10:05 AM

additionally you can play the solo part more accurately too
$3
E|-------------------------------------------------|
B|----------------1-3/5-b5-3-1h3/5--1-3/1-----1-3--|
G|--0h2-0-----0-2-------------------------0-2------|
D|--------0-2--------------------------------------|
A|-------------------------------------------------|
E|-------------------------------------------------|

guest
You may want to rate the tab now too:
select rating
Wanna post a correction for this tab? Suggest correction