Oops, an error
Loading. Please wait.

Love And Some Verses tab

87,810 views 72 this week
8 commentsread comments
1 2 3 4 5
x 28
add to favorites
×
Save as Personal and add changes to this tab that will be seen only by you. Learn more ›
×
You can save this tab as Personal to edit and correct it or add notes. All changes will be seen only by you. Learn more »
launch autoscroll
font size
0
reset
how to read this tab
guitar tuner
edit
Autoscroll
slow
fast
+/-
esc
set tempo
stop
Artist: Iron & wine
Title: love and Some Verses
Album: Our Endless Numbered days
Website: http://www.ironandwine.com/

Capo 2 all guitars
Drop D Tuning


[Intro/Verse] 

this part is played continuously throughout 
the song except  for during the bridge and the outro

E|-----------------------0--------------------------|
B|-----------0-----------------------0-----------0--|
G|-----2-----------2-----------2-----------2--------|
D|--------2-----------2-----------2-----------2-----|
A|--0-----------0-----------0-----------0-----------|
D|--------------------------------------------------|(x2)

E|--------------------------|
B|-----------0-----------0--|
G|-----2--------------------|
D|--------0-----------0-----|
A|--------------0h-2--------|
D|--0-----------------------|(x4)


[Bridge]

E|------------------------------------------------------0------------------|
B|--3--3--------3--------5p3--3p2--2--------0-----------------------3p2----|
G|--4-----4--------4---------------2--2-----------2-----------2------------|
D|--0--------0--------0------------2-----2-----------2-----------2---------|
A|--5------------------------------------------0-----------0---------------|
D|-------------------------------------------------------------------------|

E|------------------------------------------------------0-|
B|--3--3--------3--------5p3--3p2--2--------0-------------|
G|--4-----4--------4---------------2--2-----------2-------|
D|--0--------0--------0------------2-----2-----------2----|
A|--5------------------------------------------0----------|
D|--------------------------------------------------------|

E|---------------------------------------------0---------|
B|----------0-----------0--2--------0-----------------2--|
G|----2-----------2--------2--2----------2---------2-----|
D|-------2-----------2-----2-----2----------2------------|
A|-0-----------0-----------------------0-----------------|
D|-------------------------------------------------------|

2nd Guitar (slide)

[Solo]

E|----------------------------------------------------|
B|----------------------------------------------------|
G|----------------------------------------------------|
D|--7--9/11-11--/9\7-7\4-4---2/4-4---7/9-9\7-7--------|
A|----------------------------------------------------|
D|----------------------------------------------------|(x2)

E|---------------------------------------------|
B|---------------------------------------------|
G|--6---7/9---9---/7\6--6\2--2---1/2--2---6/7--|
D|--7---9/11--11--/9\7--7\4--4---2/4--4---7/9--|
A|---------------------------------------------|
D|---------------------------------------------|(x2)

E|-------------------------------------------------------------------------|
B|-------------------------------------------------------------------------|
G|---------------------------------------------------------------9---------|
D|--9/12-12---14\12-12\11-11--/12\11\--7/12---14\12-12\11-11-----11--7--11-|
A|-------------------------------------------------------------------------|
D|-------------------------------------------------------------------------|

Intro x2


[Verse 1]

 Love is a dress that you made
 Long to hide your knees
 love to say this to your face
 "I'll love you only"
 For your days and excitement
 What will you keep for to wear?
 Someday drawing you different
 May I be weaved in your hair?


[Bridge]

[Solo] 
(with verse playing behind)


[Verse 2]

Love and some verses you hear
Say what you can't say
Love to say this in your ear,
"I'll love you that way"
From your changing contentments,
What will you choose for to share?
Someday drawing you different,
May I be weaved in your hair?


[Outro] 
(with break playing behind)

E|------------------------------------------------------------|
B|------------------------------------------------------------|
G|------------------------------------------------------------|
D|--9/12-12---14\12-12\11-11--/12\11\--7/12---14\12-12\11-11--|
A|------------------------------------------------------------|
D|------------------------------------------------------------|

  then:
E|-----------------------0--------------------------|
B|-----------0-----------------------0-----------0--|
G|-----2-----------2-----------2-----------2--------|
D|--------2-----------2-----------2-----------2-----|
A|--0-----------0-----------0-----------0-----------|
D|--------------------------------------------------|(x4)



************************************

| h  Hammer-on
| p  Pull-off
| /  Slide up
| \  Slide down

************************************

            
            
Suggest correction
Creating personal tab
Creating personal tab
You can edit any tab online and save it as your Personal.

You can edit, replace or remove any tab part or add personal notes – all changes will be seen only by you.

Personal tabs can be accessed anytime from any device, even offline.
Learn more »
comments
print report bad tab
8 comments total. Showing first comments.
-1 reply
mapeterz 537 Oct 04, 2007 03:50 AM

good tab.. but why does it need to be in drop D if you never use the string!?

+3 reply
kc_sharky 156 Oct 12, 2007 10:05 AM

You do use the string :S

0 reply
truexx 10 Apr 12, 2008 07:34 AM

i think mapetez means just the second guitar. I don't see where the second guitar plays anything on the supposed "E" string..so i'm agreeing with them. Maybe we're reading the tab wrong..

guest
You may want to rate the tab now too:
select rating
Wanna post a correction for this tab? Suggest correction