Oops, an error
Loading. Please wait.

Morning tab

version 2
version 2

Whole song

1,850 views 9 this week
1 commentread comment
1 2 3 4 5
x 4
add to favorites
×
Save as Personal and add changes to this tab that will be seen only by you. Learn more ›
×
You can save this tab as Personal to edit and correct it or add notes. All changes will be seen only by you. Learn more »
launch autoscroll
font size
0
reset
how to read this tab
guitar tuner
edit
Autoscroll
slow
fast
+/-
esc
set tempo
stop
here's the tab for morning by iron and wine--  
i took most of it from something posted in the comments section of the other morning tab-- 
though i added some-- its kind of confusing but simple when figured out
on Around the Well-- capo on second fret

chords:  G: 320003
         D: x54030
         C: 032010

verse:  the verse is basically just G (with the pull off on the A string) 
then D then C and then the end part which is tabbed out 

e|---------------------------|
B|----0-----0--------0-------|
G|------0--------0-----------|
D|--------0--------0---------|
A|------------0p2------------| x2
E|----3----------------------|

e|---------------------------|
B|----3------3----------3----|
G|-------0---------0---------|
D|---------4----------4------|
A|----5----------5-----------| x2
E|---------------------------|

e|---------------------------|
B|----1-------1-----------1--|
G|-------0----------0--------|
D|----------2----------2-----|
A|----3-----------3----------| x2
E|---------------------------|

e|-----------------------------------------------|
B|-----------0---------0---------0----------0----| <-- end part 
G|-------0---------0---------0----------0--------|
D|---------0---------0---------2----------0------|
A|--------------0---------2----------------------| x1-- then go back to the 
E|----3------------------------------2-----------|          start

chorus:  the chorus is the basically same picking pattern with the same chords 
just in different order
          it goes:       C x2  G x2  C x2  D x2  <-- and all of this twice
                                                     makes up the chorus


thats all of it-- now you just need to put the verses and the choruses together and you're done

            
            
Suggest correction
Creating personal tab
Creating personal tab
You can edit any tab online and save it as your Personal.

You can edit, replace or remove any tab part or add personal notes – all changes will be seen only by you.

Personal tabs can be accessed anytime from any device, even offline.
Learn more »
comments
print report bad tab
1 comment total.
+1 reply
multimediaspeak 132 Aug 17, 2012 11:10 PM

AMERICA WOOP WOOP

guest
You may want to rate the tab now too:
select rating
Wanna post a correction for this tab? Suggest correction