Oops, an error
Loading. Please wait.

Naked As We Came Tab

version 1
version 1

Whole song

Interactive

383,117 views 462 this week
32 commentsread comments
1 2 3 4 5
x 263
add to favorites
launch autoscroll
font size
0
reset
how to read this tab
guitar tuner
×
Best way to learn
"Naked As We Came"
Autoscroll
slow
fast
+/-
esc
set tempo
stop
Tuning
Capo
D A D G B E
2nd fret
Iron and Wine (singer/songwriter -SUBPOP-)
"Naked as We Came"
CORRECTION TO THE LAST TAB (this makes it much easier) 

Drop "D" tuning 

CAPO - 2ND FRET
 

[Intro]

E|---------------------------------|--------------------------------|
B|-------3--------3-------3-------0|-------0-------0-------0-------0|
G|---0--------0-------0-------0----|---0-------0-------0-------0----|x4
D|-----4--------4-------4-------4--|-----0-------0-------0-------0--|
A|-5----------------0--------------|-----------------2-------0------|
D|---------0----------------0------|-2-------4----------------------|


[Verse]

E|---------------------------------|--------------------------------|
B|-------3--------3-------3-------0|-------0-------0-------0-------0|
G|---0--------0-------0-------0----|---0-------0-------0-------0----|x4
D|-----4--------4-------4-------4--|-----0-------0-------0-------0--|
A|-5----------------0--------------|-----------------2-------0------|
D|---------0----------------0------|-2-------4----------------------|


[Chorus]

E|---------------0-----------------|--------------------------------|
B|-------0---------------0---------|-------0-------0-------0-------0|
G|---2-------2-------2-------2-----|---0-------0-------0-------0----|x4
D|-----2-------2-------2-------2---|-----0-------0-------0-------0--|
A|-0-------0-------0-------0-------|-----------------2-------0------|
D|---------------------------------|-2-------4----------------------|
Suggest correction
comments
print report bad tab
32 comments total. Showing first comments.
+28 reply
BraisedLungfish 10 Nov 15, 2005 02:53 PM

Very, very good tab, although I think the chorus is actually:

CHORUS X4

E|---------------0-----------------|--------------------------------|
B|-------0---------------0---------|-------0-------0-------0-------0|
G|---2-------2-------2-------0-----|---0-------0-------0-------0----|
D|-----2-------2-------2-------2---|-----0-------0-------0-------0--|
A|-0-------0-------0-------0-------|-----------------2-------0------|
D|---------------------------------|-2-------4----------------------|

0 reply
andrewbiles 4,755 Nov 28, 2005 05:13 AM

Excellent tab.

0 reply
danisthecrunge 31 Dec 17, 2005 05:54 AM

great job

guest
You may want to rate the tab now too:
select rating
Wanna post a correction for this tab? Suggest correction