Oops, an error
Loading. Please wait.
We have Chord Pro version of Such Great Heights.
It's the closest thing you can get to the original song and it has interactive parts. Check out the tab »
×

Such Great Heights solo tab

version 2
version 2

Solo

Whole song

Interactive

331 views 1 this week
no commentswrite comment
1 2 3 4 5
3 more votes to show rating
add to favorites
×
Save as Personal and add changes to this tab that will be seen only by you. Learn more ›
×
You can save this tab as Personal to edit and correct it or add notes. All changes will be seen only by you. Learn more »
launch autoscroll
font size
0
reset
how to read this tab
guitar tuner
edit
Autoscroll
slow
fast
+/-
esc
set tempo
stop
-------------------------------------------------------------------------------
                             Such Great Heights - Iron & Wine
-------------------------------------------------------------------------------
Tabbed by: Joe H.
E-mail: joey2_96@yahoo.com

Tuning: Standard Capo 6

I'm re-tabbing the mandolin solo for a guitar capoed at the 6th fret so you can play it with the 
capo in the same position as the main guitar part and with easier shapes.  
The recorded version of the song is tuned slightly sharp of standard

e|-0----------------|---1--0---------0----|-3----------------|---3--5--------3--0--|
B|-1----------------|-----------0---------|-0----------------|------------0--------|
G|-0----------------|---------------------|-0----------------|---------------------|
D|------------------|---------------------|------------------|---------------------|
A|------------------|---------------------|------------------|---------------------|
E|------------------|---------------------|------------------|---------------------|
 | 1  + 2 + 3 + 4 + | 1 +  2  + 3  + 4  + | 1  + 2 + 3 + 4 + | 1 +  2 + 3  + 4  +  |

e|-1----------------|---1--0---------0----|-0--------1--0-------|-3--------3-----0---|
B|-1----------------|-----------0---------|-1--------------1----|-0--------0---------|
G|-0----------------|---------------------|-0-------------------|-0--------0---------|
D|------------------|---------------------|---------------------|--------------------|
A|------------------|---------------------|---------------------|--------------------|
E|------------------|---------------------|---------------------|--------------------|
 | 1  + 2 + 3 + 4 + | 1 +  2  + 3  + 4  + | 1  + 2 + 3  +  4  + | 1  + 2 + 3  + 4  + |

e|-0----------------|
B|-1----------------|
G|-0----------------|
D|------------------|
A|------------------|
E|------------------|
 | 1  + 2 + 3 + 4 + |



************************************

| /   slide up
| \   slide down
| h   hammer-on
| p   pull-off
| ~   vibrato
| +   harmonic
| x   Mute note
| b   Bend
| pb  Pre-bend
| br  Bend release
| pbr Pre-bend release
| brb Bend release bend

************************************

            
            
Suggest correction
Creating personal tab
Creating personal tab
You can edit any tab online and save it as your Personal.

You can edit, replace or remove any tab part or add personal notes – all changes will be seen only by you.

Personal tabs can be accessed anytime from any device, even offline.
Learn more »
Give kudos to tab author, rate the tab!
1 2 3 4 5
comments
print report bad tab
guest
You may want to rate the tab now too:
select rating
Wanna post a correction for this tab? Suggest correction