Oops, an error
Loading. Please wait.
We have Chord Pro version of Such Great Heights.
It's the closest thing you can get to the original song and it has interactive parts. Check out the tab »
×

Such Great Heights ukulele

version 2
version 2

Whole song

  • I have the finger picking included and the solo.

Interactive

358 views 1 this week
no commentswrite comment
1 2 3 4 5
2 more votes to show rating
add to favorites
×
Save as Personal and add changes to this tab that will be seen only by you. Learn more ›
×
You can save this tab as Personal to edit and correct it or add notes. All changes will be seen only by you. Learn more »
launch autoscroll
font size
0
reset
transpose
0
reset
display chords
guitar tuner
edit
Autoscroll
slow
fast
+/-
esc
set tempo
stop
About this tab version
I have the finger picking included and the solo. Was this info helpful? Yes No
Strumming
There is no strumming pattern for this song yet. and get +5 IQ
Iron and wine- such great heights
Ukulele
Capo on the first fret


Chords (Relative to capo)
        F      C      Bb
A|------0------3-------1----|
E|------1------0-------1----|
C|------0------0-------2----|
G|------2------0-------3----|



Pattern (Repeat through entire song)
   F                                   C
A|--------0--------0-------0-------0----------3-------3-------3-------3----|
E|-1----1----1---1---1---1---1---1-----0----0---0---0---0---0---0---0------|
C|----0--------0-------0-------0----------0-------0-------0-------0--------|
G|-2-----------------------------------0-----------------------------------|

   Bb                                  F                 C
A|-------1-------1-------1-------1------------0-------0---------3-------3--|
E|-1---1---1---1---1---1---1---1-------1----1---1---1----0----0---0---0----|
C|---2-------2-------2-------2------------0-------0---------0-------0------|
G|-3-----------------------------------2-----------------0-----------------|

[Solo] (If in duet)
   F               C                   Bb                C              F
A|-0-----1p0----0--3---5--3--1--3p1----1-----1p0-----0---3--3--1-0-1p0--0--|
E|-1---------1-----0-------------------1----------1------0--------------1--|
C|-0---------------0-------------------2-----------------0--------------0--|
G|-2---------------0-------------------3-----------------0--------------2--|

End :)

            
            
Suggest correction
Creating personal tab
Creating personal tab
You can edit any tab online and save it as your Personal.

You can edit, replace or remove any tab part or add personal notes – all changes will be seen only by you.

Personal tabs can be accessed anytime from any device, even offline.
Learn more »
Give kudos to tab author, rate the tab!
1 2 3 4 5
comments
print report bad tab
guest
You may want to rate the tab now too:
select rating
Wanna post a correction for this tab? Suggest correction