Oops, an error
Loading. Please wait.

Sunset Soon Forgotten tab

version 4
version 4

Interactive

5,525 views 1 this week
1 commentread comment
1 2 3 4 5
1 last vote to show rating
add to favorites
×
Save as Personal and add changes to this tab that will be seen only by you. Learn more ›
×
You can save this tab as Personal to edit and correct it or add notes. All changes will be seen only by you. Learn more »
launch autoscroll
font size
0
reset
how to read this tab
guitar tuner
edit
Autoscroll
slow
fast
+/-
esc
set tempo
stop
-------------------------------------------------------------------------------
                             SUNSET SOON FORGOTTEN - Iron and Wine
-------------------------------------------------------------------------------
Tabbed by: Kristen Sullivan
Email: kristenlikesmusic@yahoo.com

Not sure if this is exactly how he plays it, but it sounds just like it!

Tuning (from highest to lowest):  D B G D G G

Capo 3rd fret

This song is basically just a few chord shapes.  The main thing to learn is the finger picking.


Intro:

|---------0---------|------------------0|-----------------0-|-----------------0-|
|--0h1*-----------0-|--------0----------|---------0---------|--------0----------|
|-------------0-----|----0-----------0--|-----0---------0---|----0----------0---|
|------2--------2---|------2-----0h2----|-------2---0h2-----|------2----0h2-----|
|-------------------|-------------------|-------------------|-------------------|
|--0--------0-------|--0----------------|--0----------------|--0----------------|


|-------------------|-------------------|-------------------|-------------------|
|----------0-------0|--------0--------0-|---------0--------0|--------0-------0--|
|--------------0----|-------------0-----|--------------0----|------------0------|
|-------0--------0--|------0--------0---|------0---------0--|------0-------0----|
|--2/4--------------|--2/4--------------|--2/4--------------|--2/4--------------|
|------------0------|----------0--------|-----------0-------|----------0--------|

|---------0---------|------------------0|-----------------0-|-----------------0-|
|--1--------------0-|--------0----------|---------0---------|--------0----------|
|----0--------0-----|----0-----------0--|-----0---------0---|----0----------0---|
|------2--------2---|------2-----0h2----|-------2---0h2-----|------2----0h2-----|
|-------------------|-------------------|-------------------|-------------------|
|--0--------0-------|--0----------------|--0----------------|--0----------------|


|-------------------|-------------------|-------------------|-------------------|
|----------0-------0|--------0--------0-|---------0--------0|--------0-------0--|
|--------------0----|-------------0-----|--------------0----|------------0------|
|-------0--------0--|------0--------0---|------0---------0--|------0-------0----|
|--2/4--------------|--2/4--------------|--2/4--------------|--2/4--------------|
|------------0------|----------0--------|-----------0-------|----------0--------|

*This hammer-on is only played once, at the very beginning of the song.  All other 
it's just a 1 there.



Chorus:

|--------0----------|--------0----------|--------0----------|---------0---------|
|--3--------------3-|-------------------|--1-------------1--|-----------------1-|
|----0--------0-----|----0--------0-----|----0-------0------|-----0-------0-----|
|------4--------4---|------4--------4---|------2-------2----|-------2-------2---|
|--4--------4-------|--4--------4-------|--2----------------|--2--------2-------|
|-------------------|-------------------|-------------------|-------------------|

|-------------------|-------------------|-------------------|-------------------|
|----------0-------0|--------0--------0-|---------0--------0|--------0-------0--|
|--------------0----|-------------0-----|--------------0----|------------0------|
|-------0--------0--|------0--------0---|------0---------0--|------0-------0----|
|--2/4--------------|--2/4--------------|--2/4--------------|--2/4--------------|
|------------0------|----------0--------|-----------0-------|----------0--------|

|--------0----------|--------0----------|--------0----------|---------0---------|
|--3--------------3-|-------------------|--1-------------1--|-----------------1-|
|----0--------0-----|----0--------0-----|----0-------0------|-----0-------0-----|
|------4--------4---|------4--------4---|------2-------2----|-------2-------2---|
|--4--------4-------|--4--------4-------|--2----------------|--2--------2-------|
|-------------------|-------------------|-------------------|-------------------|

|-------------------|-------------------|-------------------|-------------------|
|----------0-------0|--------0--------0-|---------0--------0|--------0-------0--|
|--------------0----|-------------0-----|--------------0----|------------0------|
|-------0--------0--|------0--------0---|------0---------0--|------0-------0----|
|--2/4--------------|--2/4--------------|--2/4--------------|--2/4--------------|
|------------0------|----------0--------|-----------0-------|----------0--------|


Verses:

|---------0---------|--------0----------|---------0---------|--------0----------|
|--1--------------0-|-----------------0-|-----------------0-|-----------------0-|
|----0--------0-----|----0--------0-----|-----0-------0-----|----0--------0-----|
|------2--------2---|------2--------2---|-------2-------2---|------2--------2---|
|-------------------|-------------------|-------------------|-------------------|
|--0--------0-------|--0--------0-------|--0--------0-------|--0--------0-------|


|-------------------|-------------------|-------------------|-------------------|
|----------0-------0|--------0--------0-|---------0--------0|--------0-------0--|
|--------------0----|-------------0-----|--------------0----|------------0------|
|-------0--------0--|------0--------0---|------0---------0--|------0-------0----|
|--2/4--------------|--2/4--------------|--2/4--------------|--2/4--------------|
|------------0------|----------0--------|-----------0-------|----------0--------|

It's pretty much just the intro without the hammer-ons!


Ending:

|---------0---------|------------------0|-----------------0-|-----------------0-|
|--1--------------0-|--------0----------|---------0---------|--------0----------|
|----0--------0-----|----0-----------0--|-----0---------0---|----0----------0---|
|------2--------2---|------2-----0h2----|-------2---0h2-----|------2----0h2-----|
|-------------------|-------------------|-------------------|-------------------|
|--0--------0-------|--0----------------|--0----------------|--0----------------|


|-------------------|-------------------|-------------------|-------------------|
|----------0-------0|--------0--------0-|---------0--------0|--------0-------0--|
|--------------0----|-------------0-----|--------------0----|------------0------|
|-------0--------0--|------0--------0---|------0---------0--|------0-------0----|
|--2/4--------------|--2/4--------------|--2/4--------------|--2/4--------------|
|------------0------|----------0--------|-----------0-------|----------0--------|


If you're having trouble reading the tabs, here are the chord shapes as well:

|------|
|-1----|
|------|
|---2--|
|------|
|------|


|------|
|-3----|
|------|
|---4--|
|---4--|
|------|


|------|
|-1----|
|------|
|---2--|
|---2--|
|------|

Hope this helps!

            
            
Suggest correction
Creating personal tab
Creating personal tab
You can edit any tab online and save it as your Personal.

You can edit, replace or remove any tab part or add personal notes – all changes will be seen only by you.

Personal tabs can be accessed anytime from any device, even offline.
Learn more »
Give kudos to tab author, rate the tab!
1 2 3 4 5
comments
print report bad tab
1 comment total.
0 reply
miller323334 352 Nov 19, 2016 06:49 PM

nice tab! I think Sam Beam plays it in open G tuning (low to high): D G D G B D which would put the root notes on the 5th string instead of the 6th. Beautiful song, thanks for posting.

guest
You may want to rate the tab now too:
select rating
Wanna post a correction for this tab? Suggest correction