Oops, an error
Loading. Please wait.

Sunset Soon Forgotten tab

version 6
version 6

Interactive

166 views 51 this week
no commentswrite comment
1 2 3 4 5
3 more votes to show rating
add to favorites
×
Save as Personal and add changes to this tab that will be seen only by you. Learn more ›
×
You can save this tab as Personal to edit and correct it or add notes. All changes will be seen only by you. Learn more »
launch autoscroll
font size
0
reset
how to read this tab
guitar tuner
edit
Autoscroll
slow
fast
+/-
esc
set tempo
stop
[Intro]
e|----------------------------------------------------------|
B|-0h1---3-----1-------------3-------------3-------------3--|
G|---------0-----0---0-----0---0---0-----0---0---0-----0----|
D|-----2-----2-----2---0h2-------2---0h2-------2---0h2------|
A|-3--------------------------------------------------------|
E|----------------------------------------------------------|

e|-------------------------------------------------------------------|
B|-------0-------0-------0-------0-------0-------0--------0-------0--|
G|-----0-------0-------0-------0-------0-------0--------0-------0---=|
D|-----------0---------------0---------------0----------------0------|
A|-0/2-------------0/2-------------0/2--------------0/2--------------|
E|---------3---------------3---------------3----------------3--------|

e|----------------------------------------------------------|
B|-0h1---3-----1-------------3-------------3-------------3--|
G|---------0-----0---0-----0---0---0-----0---0---0-----0----|
D|-----2-----2-----2---0h2-------2---0h2-------2---0h2------|
A|-3--------------------------------------------------------|
E|----------------------------------------------------------|

e|-------------------------------------------------------------------|
B|-------0-------0-------0-------0-------0-------0--------0-------0--|
G|-----0-------0-------0-------0-------0-------0--------0-------0---=|
D|-----------0---------------0---------------0----------------0------|
A|-0/2-------------0/2-------------0/2--------------0/2--------------|
E|---------3---------------3---------------3----------------3--------|

[Verse 1]
  C9
Be this sunset soon forgotten 
e|----------------------------------------------------------|
B|-0h1---3-----1-------------3-------------3-------------3--|
G|---------0-----0---0-----0---0---0-----0---0---0-----0----|
D|-----2-----2-----2---0h2-------2---0h2-------2---0h2------|
A|-3--------------------------------------------------------|
E|----------------------------------------------------------|

  G
e|-------------------------------------------------------------------|
B|-------0-------0-------0-------0-------0-------0--------0-------0--|
G|-----0-------0-------0-------0-------0-------0--------0-------0---=|
D|-----------0---------------0---------------0----------------0------|
A|-0/2-------------0/2-------------0/2--------------0/2--------------|
E|---------3---------------3---------------3----------------3--------| 

  C9
Your brothers left here shaved and crazy 
e|----------------------------------------------------------|
B|-0h1---3-----1-------------3-------------3-------------3--|
G|---------0-----0---0-----0---0---0-----0---0---0-----0----|
D|-----2-----2-----2---0h2-------2---0h2-------2---0h2------|
A|-3--------------------------------------------------------|
E|----------------------------------------------------------|

  G
e|-------------------------------------------------------------------|
B|-------0-------0-------0-------0-------0-------0--------0-------0--|
G|-----0-------0-------0-------0-------0-------0--------0-------0---=|
D|-----------0---------------0---------------0----------------0------|
A|-0/2-------------0/2-------------0/2--------------0/2--------------|
E|---------3---------------3---------------3----------------3--------| 

  C9
We've learned to hide our bottles in the well 
e|----------------------------------------------------------|
B|-0h1---3-----1-------------3-------------3-------------3--|
G|---------0-----0---0-----0---0---0-----0---0---0-----0----|
D|-----2-----2-----2---0h2-------2---0h2-------2---0h2------|
A|-3--------------------------------------------------------|
E|----------------------------------------------------------|

  G
e|-------------------------------------------------------------------|
B|-------0-------0-------0-------0-------0-------0--------0-------0--|
G|-----0-------0-------0-------0-------0-------0--------0-------0---=|
D|-----------0---------------0---------------0----------------0------|
A|-0/2-------------0/2-------------0/2--------------0/2--------------|
E|---------3---------------3---------------3----------------3--------| 

  C9
And what's worth keeping, sun still sinking 
e|----------------------------------------------------------|
B|-0h1---3-----1-------------3-------------3-------------3--|
G|---------0-----0---0-----0---0---0-----0---0---0-----0----|
D|-----2-----2-----2---0h2-------2---0h2-------2---0h2------|
A|-3--------------------------------------------------------|
E|----------------------------------------------------------|

  G
e|-------------------------------------------------------------------|
B|-------0-------0-------0-------0-------0-------0--------0-------0--|
G|-----0-------0-------0-------0-------0-------0--------0-------0---=|
D|-----------0---------------0---------------0----------------0------|
A|-0/2-------------0/2-------------0/2--------------0/2--------------|
E|---------3---------------3---------------3----------------3--------| 

[Chorus 1]
  D                         C9
Down                    and down 
e|--------------------------------------------------|
B|-3-----3------------3-----1-----3-----1-----3-----|
G|---0-----0—--5p-0-----0-----0-----0-----0-----0---|
D|-----4-----4------4-----4-----2-----2-----2-----2-|
A|-5------------------------3-----------------------|
E|--------------------------------------------------|

  G
Once again 
e|-------------------------------------------------------------------|
B|-------0-------0-------0-------0-------0-------0--------0-------0--|
G|-----0-------0-------0-------0-------0-------0--------0-------0---=|
D|-----------0---------------0---------------0----------------0------|
A|-0/2-------------0/2-------------0/2--------------0/2--------------|
E|---------3---------------3---------------3----------------3--------|

  D                         C9
Down                    and down 
e|--------------------------------------------------|
B|-3-----3------------3-----1-----3-----1-----3-----|
G|---0-----0—--5p-0-----0-----0-----0-----0-----0---|
D|-----4-----4------4-----4-----2-----2-----2-----2-|
A|-5------------------------3-----------------------|
E|--------------------------------------------------|

Gone again 
e|-------------------------------------------------------------------|
B|-------0-------0-------0-------0-------0-------0--------0-------0--|
G|-----0-------0-------0-------0-------0-------0--------0-------0---=|
D|-----------0---------------0---------------0----------------0------|
A|-0/2-------------0/2-------------0/2--------------0/2--------------|
E|---------3---------------3---------------3----------------3--------|

[Solo]
1st Guitar
e|----------------------------------------------------------|
B|-0h1---3-----1-------------3-------------3-------------3--|
G|---------0-----0---0-----0---0---0-----0---0---0-----0----|
D|-----2-----2-----2---0h2-------2---0h2-------2---0h2------|
A|-3--------------------------------------------------------|
E|----------------------------------------------------------|

2nd Guitar (NOT relative to capo)

e|------------------|
B|-/9-10-/12-10-/9/-|
G|-/9-9--/9--9--/9/-|
D|------------------|
A|------------------|
E|------------------|

1st Guitar

e|-------------------------------------------------------------------|
B|-------0-------0-------0-------0-------0-------0--------0-------0--|
G|-----0-------0-------0-------0-------0-------0--------0-------0---=|
D|-----------0---------------0---------------0----------------0------|
A|-0/2-------------0/2-------------0/2--------------0/2--------------|
E|---------3---------------3---------------3----------------3--------| 

2nd Guitar (NOT relative to capo)

e|---------------------------|
B|---------------------------|
G|-/9--9--11-9--/9--9--11-9--|
D|-/11-11-11-11-/11-11-11-11-|
A|---------------------------|
E|---------------------------|

1st Guitar
e|----------------------------------------------------------|
B|-0h1---3-----1-------------3-------------3-------------3--|
G|---------0-----0---0-----0---0---0-----0---0---0-----0----|
D|-----2-----2-----2---0h2-------2---0h2-------2---0h2------|
A|-3--------------------------------------------------------|
E|----------------------------------------------------------|

2nd Guitar (NOT relative to capo)

e|------------------|
B|-/9-10-/12-10-/9/-|
G|-/9-9--/9--9--/9/-|
D|------------------|
A|------------------|
E|------------------|

1st Guitar

e|-------------------------------------------------------------------|
B|-------0-------0-------0-------0-------0-------0--------0-------0--|
G|-----0-------0-------0-------0-------0-------0--------0-------0---=|
D|-----------0---------------0---------------0----------------0------|
A|-0/2-------------0/2-------------0/2--------------0/2--------------|
E|---------3---------------3---------------3----------------3--------| 

2nd Guitar (NOT relative to capo)

e|-------------------------------|
B|------------------------/9-/10-|
G|-/9--9--11-9--/9--9--11-/9-/9--|
D|-/11-11-11-11-/11-11-11--------|
A|-------------------------------|
E|----------------------------=--|

[Verse 2]

  C9
Be this sunset one for keeping 
e|----------------------------------------------------------|
B|-0h1---3-----1-------------3-------------3-------------3--|
G|---------0-----0---0-----0---0---0-----0---0---0-----0----|
D|-----2-----2-----2---0h2-------2---0h2-------2---0h2------|
A|-3--------------------------------------------------------|
E|----------------------------------------------------------|

  G
e|-------------------------------------------------------------------|
B|-------0-------0-------0-------0-------0-------0--------0-------0--|
G|-----0-------0-------0-------0-------0-------0--------0-------0---=|
D|-----------0---------------0---------------0----------------0------|
A|-0/2-------------0/2-------------0/2--------------0/2--------------|
E|---------3---------------3---------------3----------------3--------| 

  C9
This june bug street sings low and lovely 
e|----------------------------------------------------------|
B|-0h1---3-----1-------------3-------------3-------------3--|
G|---------0-----0---0-----0---0---0-----0---0---0-----0----|
D|-----2-----2-----2---0h2-------2---0h2-------2---0h2------|
A|-3--------------------------------------------------------|
E|----------------------------------------------------------|

  G
e|-------------------------------------------------------------------|
B|-------0-------0-------0-------0-------0-------0--------0-------0--|
G|-----0-------0-------0-------0-------0-------0--------0-------0---=|
D|-----------0---------------0---------------0----------------0------|
A|-0/2-------------0/2-------------0/2--------------0/2--------------|
E|---------3---------------3---------------3----------------3--------| 

  C9
Those band-aid children chased your dog away 
e|----------------------------------------------------------|
B|-0h1---3-----1-------------3-------------3-------------3--|
G|---------0-----0---0-----0---0---0-----0---0---0-----0----|
D|-----2-----2-----2---0h2-------2---0h2-------2---0h2------|
A|-3--------------------------------------------------------|
E|----------------------------------------------------------|

  G
e|-------------------------------------------------------------------|
B|-------0-------0-------0-------0-------0-------0--------0-------0--|
G|-----0-------0-------0-------0-------0-------0--------0-------0---=|
D|-----------0---------------0---------------0----------------0------|
A|-0/2-------------0/2-------------0/2--------------0/2--------------|
E|---------3---------------3---------------3----------------3--------| 

  C9
She runs, returning, sun still sinking 
e|----------------------------------------------------------|
B|-0h1---3-----1-------------3-------------3-------------3--|
G|---------0-----0---0-----0---0---0-----0---0---0-----0----|
D|-----2-----2-----2---0h2-------2---0h2-------2---0h2------|
A|-3--------------------------------------------------------|
E|----------------------------------------------------------|

  G
e|-------------------------------------------------------------------|
B|-------0-------0-------0-------0-------0-------0--------0-------0--|
G|-----0-------0-------0-------0-------0-------0--------0-------0---=|
D|-----------0---------------0---------------0----------------0------|
A|-0/2-------------0/2-------------0/2--------------0/2--------------|
E|---------3---------------3---------------3----------------3--------| 

[Chorus 2]

  D                         C9
Down                    and down 
e|--------------------------------------------------|
B|-3-----3------------3-----1-----3-----1-----3-----|
G|---0-----0—--5p-0-----0-----0-----0-----0-----0---|
D|-----4-----4------4-----4-----2-----2-----2-----2-|
A|-5------------------------3-----------------------|
E|--------------------------------------------------|

  G
Once again 
e|-------------------------------------------------------------------|
B|-------0-------0-------0-------0-------0-------0--------0-------0--|
G|-----0-------0-------0-------0-------0-------0--------0-------0---=|
D|-----------0---------------0---------------0----------------0------|
A|-0/2-------------0/2-------------0/2--------------0/2--------------|
E|---------3---------------3---------------3----------------3--------|

  D                         C9
Down                    and down 
e|--------------------------------------------------|
B|-3-----3------------3-----1-----3-----1-----3-----|
G|---0-----0—--5p-0-----0-----0-----0-----0-----0---|
D|-----4-----4------4-----4-----2-----2-----2-----2-|
A|-5------------------------3-----------------------|
E|--------------------------------------------------|

  G
Gone again 
e|-------------------------------------------------------------------|
B|-------0-------0-------0-------0-------0-------0--------0-------0--|
G|-----0-------0-------0-------0-------0-------0--------0-------0---=|
D|-----------0---------------0---------------0----------------0------|
A|-0/2-------------0/2-------------0/2--------------0/2--------------|
E|---------3---------------3---------------3----------------3--------|

[Outro]
  C9
e|----------------------------------------------------------|
B|-0h1---3-----1-------------3-------------3-------------3--|
G|---------0-----0---0-----0---0---0-----0---0---0-----0----|
D|-----2-----2-----2---0h2-------2---0h2-------2---0h2------|
A|-3--------------------------------------------------------|
E|----------------------------------------------------------|

  G
e|-------------------------------------------------------------------|
B|-------0-------0-------0-------0-------0-------0--------0-------0--|
G|-----0-------0-------0-------0-------0-------0--------0-------0---=|
D|-----------0---------------0---------------0----------------0------|
A|-0/2-------------0/2-------------0/2--------------0/2--------------|
E|---------3---------------3---------------3----------------3--------| 

  C9
e|----------------------------------------------------------|
B|-0h1---3-----1-------------3-------------3-------------3--|
G|---------0-----0---0-----0---0---0-----0---0---0-----0----|
D|-----2-----2-----2---0h2-------2---0h2-------2---0h2------|
A|-3--------------------------------------------------------|
E|----------------------------------------------------------|

  G
e|----------------------------------------------------|
B|-------0-------0-------0-------0-------0-------0----|
G|-----0-------0-------0-------0-------0-------0------|
D|-----------0---------------0---------------0--------|
A|-0/2-------------0/2-------------0/2----------------|
E|---------3---------------3---------------3-------3--| Let ring out.



************************************

| h  Hammer-on
| /  Slide up
| p  Pull-off
 

************************************

            
            
Suggest correction
Creating personal tab
Creating personal tab
You can edit any tab online and save it as your Personal.

You can edit, replace or remove any tab part or add personal notes – all changes will be seen only by you.

Personal tabs can be accessed anytime from any device, even offline.
Learn more »
Give kudos to tab author, rate the tab!
1 2 3 4 5
comments
print report bad tab
guest
You may want to rate the tab now too:
select rating
Wanna post a correction for this tab? Suggest correction