Oops, an error
Loading. Please wait.

Swans And The Swimming tab

version 1
version 1

Whole song

11,230 views 3 this week
no commentswrite comment
1 2 3 4 5
x 4
add to favorites
×
Save as Personal and add changes to this tab that will be seen only by you. Learn more ›
×
You can save this tab as Personal to edit and correct it or add notes. All changes will be seen only by you. Learn more »
launch autoscroll
font size
0
reset
how to read this tab
guitar tuner
edit
Autoscroll
slow
fast
+/-
esc
set tempo
stop
Tuning: Capo 3

Swung

Chord Pannel:

DM: (xx0231)
AM: (x02210)
Cadd5: (x32013)
G: (320003)
F/C: (x33211)

INTRO/VERSE:

   Dm               Am              Cadd5            G
e |-------1--------|-------0--------|-------3--------|----------------|
B |-------3--------|-------1--------|-------1--------|----------------|
G |---2------2--0--|---2-----2---0--|---0-----0---0--|---0---0---0----|
D |-0--0-------0---|-----2----------|-----2----------|-----0----------|
A |----------------|-0---------2----|-3---------3----|-------------0h2|
E |----------------|----------------|----------------|-3-------3------|


Dm
"Take me again," She said
Am              Walk up Cadd5
Thinking of him, "To the pond with the swans
        G
And the swimming.


Repeat like that through the verse. Here are the rest of the lyrics:


Far from his room, that familiar perfume
How it left her aware she was naked.
The lesson she learned
When her memory slurs
Is to marvel with love at the sunset
But walkin' away's the dark end of the day
She will measure and break like a habit.


CHORUS:

   F/C             G                C       /B       Am
e |---1------------|-------3--------|----------------|-------0--------|
B |---1------------|-------0--------|-------1-------1|-------1--------|
G |--------2---0---|---0-------0---0|---0-------0----|---2------2---2-|
D |---3------3-----|-----0-------0--|-----2-------0--|-----2------2---|
A |-3----3---------|----------------|-3-------2------|-0--------------|
E |----------------|-3--------------|----------------|----------------|

repeat once

Then from the Am go

  G
e |----------------|
B |----------------|
G |---0---0---0----|
D |-----0----------|
A |-------------0h2|
E |-3-------3------|

F          G               C        C/B      Am
Oh how the rain sounds as loud as a lover's words.
F        G           C             C/B        Am
Now and again, shes afraid when the sun returns.



Then into the end of the verse riff into the main riff. I'm sorry,
I dont know the solo.

Continued lyrics:

"Take me again," she said thinking of him
"I don't care for this careful behavior."
A brush through her hair,
Children kissin' up stairs
Keeps her up with a want for a savior.
Sun on the sand,
On her knees and her hand
As she begs for a fish from the water.
Turn them away, shes a whip and a slave
Given time she may find something better.


CHORUS.

            
            
Suggest correction
Creating personal tab
Creating personal tab
You can edit any tab online and save it as your Personal.

You can edit, replace or remove any tab part or add personal notes – all changes will be seen only by you.

Personal tabs can be accessed anytime from any device, even offline.
Learn more »
comments
print report bad tab
guest
You may want to rate the tab now too:
select rating
Wanna post a correction for this tab? Suggest correction