Oops, an error
Loading. Please wait.

The Devil Never Sleeps tab

version 2
version 2

Whole song

1,829 views 9 this week
no commentswrite comment
1 2 3 4 5
3 more votes to show rating
add to favorites
×
Save as Personal and add changes to this tab that will be seen only by you. Learn more ›
×
You can save this tab as Personal to edit and correct it or add notes. All changes will be seen only by you. Learn more »
launch autoscroll
font size
0
reset
how to read this tab
guitar tuner
edit
Autoscroll
slow
fast
+/-
esc
set tempo
stop
Title:  The Devil Never Sleeps (Demo Version)
Artist: Iron & Wine
Album:  The Shepherd's Dog (Alternate Takes)
----------------------------------------------
This is the version of "The Devil Never Sleeps" from the alternate takes compilation of "The Shepherd's Dog" by Iron & Wine. It was released as a free download on the band website.
----------------------------------------------

Performance Notes: Drop D Tuning (DADGBe)
Capo: 4th Fret.
----------------------------------------------

Tabulature
----------------------------------------------

Line A: This is the intro and verse riff. The 3rd and 4th bars are actually just a 
of the first two, but I have chosen to include them as one line because this is exactly half the of each of the lines in the verses.

Play twice for intro, then play twice for each of the first four lines of the verses.

"Dreamin' again..."
|-----------------0--------|-----------------0--------|-----------------0--------|
|-----1--------------3-----|-----1--------------3-----|-----1--------------3-----|
|--------2--------------2--|--------2--------------2--|--------2--------------2--|
|-----------0--------------|-----------0--------------|-----------0--------------|
|--------------0-----------|--------------0-----------|--------------0-----------|
|--0-----------------------|--0-----------------------|--0-----------------------|

-----------------0--------|
-----1--------------3-----|
--------2--------------2--|
-----------0--------------|
--------------0-----------|
--0-----------------------|


Line B: Play once at the beginning of the 5th and 6th lines of the versus, followed by A twice.

"No one on the corner..."
|-----------------0--------|-----------------0--------|
|-----1--------------3-----|-----1--------------3-----|
|--------2--------------2--|--------2--------------2--|
|-----------0--0-----------|-----------0--0-----------|
|--3-----------------------|--2-----------------------|
|--------------------------|--------------------------|

Lyrics
----------------------------------------------

Bracketed lyrics are backing vocals on the main album. They are NOT present in this version of the song, but I have included them here for convenience.

Verse 1:

Dreaming again of a train track ending at the edge of the sea
(Big black cloud was low and rolling our way)
Dog at the barbed wire barking at my buzzcut friends and me
(Sound of a switchblade shining in the summer rain)
No one on the corner had a quarter for the telephone
Everybody bitching, "There's nothing on the radio"

Verse 2:

Dreaming again of a city full of fathers in their army clothes
(Chattering boys and a chicken at the chopping block)
All of us lost at the crosswalk waiting for the other to go
(Didn't find a friend but, boy, I really bought a lot)
Someone bet a dollar that my daddy wasn't coming home
Everybody bitching, "There's nothing on the radio"

Verse 3:

Dreaming again that its freezing and my mother's in her flowerbed
(Long dead rows of daffodils and marigolds)
Changing her face like a shadow on the gravel, this is what she said,
(Blood on my chin, still chewing on a red rose)
"No one lives forever and the devil never sleeps alone"
Everybody bitching, "There's nothing on the radio"
Suggest correction
Creating personal tab
Creating personal tab
You can edit any tab online and save it as your Personal.

You can edit, replace or remove any tab part or add personal notes – all changes will be seen only by you.

Personal tabs can be accessed anytime from any device, even offline.
Learn more »
Give kudos to tab author, rate the tab!
1 2 3 4 5
comments
print report bad tab
guest
You may want to rate the tab now too:
select rating
Wanna post a correction for this tab? Suggest correction