Oops, an error
Loading. Please wait.

My Heart Tab

version 3
version 3

Intro

Whole song

Interactive

17,665 views 27 this week
5 commentsread comments
1 2 3 4 5
x 5
add to favorites
launch autoscroll
font size
0
reset
how to read this tab
guitar tuner
Autoscroll
slow
fast
+/-
esc
set tempo
stop
Help us to improve Ultimate-Guitar.com Take our survey!
×
Author
Difficulty
novice
This song is very easy to hear and tab-it-yourself. I can't understand why the other 
are inaccurate. Even the chords are inaccurate, unless the tunings are stepped down. It 
me to find inaccurate tabs.

So heres the correct intro. It's in STANDARD TUNING.
Not sure abt the real tuning for the real song.
But it should be in standard.

e|-----0-----------|------2---0------|-----0-----------|-----------------|
B|----------3---2--|--------------3--|---------3---2---|----------0---2--|
G|-----------------|----0---0---0----|-----------------|------3----------|
D|----4---4---4----|-----------------|---4---4---4-----|----4---4---4----|
A|--2--------------|--2--------------|-2---------------|-----------------|
E|-----------------|-----------------|-----------------|--2--------------|


e|-----0-----------|------2---0------|-----0-----------|------------------2-|
B|----------3---2--|--------------3--|---------3---2---|----------0---2-----|
G|-----------------|----0---0---0----|-----------------|------3-------------|
D|----4---4---4----|-----------------|---4---4---4-----|----4---4---4---4---|
A|--2--------------|--2--------------|-2---------------|--------------------|
E|-----------------|-----------------|-----------------|--2-----------------|


Bar chords finger positionings can be used in this intro.
Have fun and happy jiwang-ing.
Suggest correction
comments
print report bad tab
5 comments total. Showing first comments.
0 reply
bagidol 10 Dec 05, 2006 09:57 AM

" it irritates* me "

guess tats wat u meant to say.
yea man me too. ur tab seems accurate.
much better than the rest.

0 reply
Melonmunky 10 Dec 06, 2006 08:49 PM

yeah man. yours was WAY better than the rest. i tried to post mine but it got rejected for unknown reason. its not perfect but i think its better than the others (xcept yours). give it a try and tell me wat you think.

e|------------------|------------------|------------------|
B|-------3---1---0--|------5----3---2--|-------3---1---0--|
G|------------------|------------------|------------------|
D|-----2---2---2----|-----4----4---4---|-----2---2---2----|
A|--0---------------|--0---------------|--0---------------|
E|------------------|------------------|------------------|



e|---------------|
B|---------------|
G|-----3---4---6-|
D|---2---2---2---|
A|-0-------------|
E|---------------|


Repeat this part twice and there you have it, THE INTRO!!!

p.s i rate urs 4 stars

0 reply
ZEiNDEiN 81 Dec 07, 2006 07:06 AM

dude Melonmunky.
there are abit of errors for ur piece of intro.
firstly, to be in tone by using ur piece, capo on second fret is needed.
ofcos the tuning has to be realli in standard tune.

secondly, to sound more accurate...the notes shud be in this way..


e|------------------|------------------|------------------|
B|-------3---1---0--|------5----3---1--|-------3---1---0--|
G|------------------|------------------|------------------|
D|-----2---2---2----|-----3----3---3---|-----2---2---2----|
A|--0---------------|--0---------------|--0---------------|
E|------------------|------------------|------------------|

e|---------------|
B|---------------|
G|-----1---2---4-|
D|---2---2---2---|
A|-0-------------|
E|---------------|

compare with urs aite..
good try though!

guest
You may want to rate the tab now too:
select rating
Wanna post a correction for this tab? Suggest correction