Oops, an error
Loading. Please wait.

Ni Te Vistas Que No Vas tab

17 views 1 this week
no commentswrite comment
1 2 3 4 5
3 more votes to show rating
add to favorites
×
Save as Personal and add changes to this tab that will be seen only by you. Learn more ›
×
You can save this tab as Personal to edit and correct it or add notes. All changes will be seen only by you. Learn more »
launch autoscroll
font size
0
reset
how to read this tab
guitar tuner
edit
Autoscroll
slow
fast
+/-
esc
set tempo
stop
¡CON CAPO EN EL SEGUNDO TRASTE!
(Los trastes se cuentan a partir del capo-traste)

¡ESTA ES UNA VERSIÓN PARA UNA GUITARRA Y NO MÁS!
¡ESPERO QUE LES GUSTE!

                  C
Estás algo desubicado
                                                 G
Quien te dijo que no hay una que no se muera por ti.
                          F
Si tu estrategia ha funcionado
                    G                C
De seguro es porque no me conocías a mí.

INTRO:

e|--------------------0-|
b|-------------1--1-3---|
g|----------------------|
d|-2-2-2-0-0------------|
a|-----------3-3--------|
E|----------------------|


e|------------------------|
b|---------------0--0-1-3-|
g|------------------------|
d|-2-2-2-2-0-0------------|
a|-------------3-2--------|
E|------------------------|

e|-------------------------|
b|-------------------------|
g|---0-------------0-------|
d|-3---3-3-2-2-0-3---3-2-0-|
a|-------------------------|
E|-------------------------|

e|----------0-------|
b|------------3-1-1-|
g|------------------|
d|-0-2-0------------|
a|-------3-3--------|
E|------------------|


ESTROFAS 1:
Estás algo desubicado
e|---0-0-0-----------------|
b|---------3-3-0-1-1-------|
g|-0-----------------------|
d|-------------------------|
a|-------------------------|
E|-------------------------|

Quién te dijo que no hay una que no se muera por ti
e|-------------------------------|
b|---1-1-----1-1-----1-1-0-0-----|
g|-0-----0-0-----0-0---------2-0-|
d|-------------------------------|
a|-------------------------------|
E|-------------------------------|

Si tu estrategia ha funcionado,
b|-1-1-1-1-0-0---1---|
g|-------------3---3-|
d|-------------------|
a|-------------------|
E|-------------------|

De seguro es porque no me conocías a mí.
b|-----------------------0-0-|
g|-3-3-3-1-1-1-0-0-0-1-3-----|
d|---------------------------|
a|---------------------------|
E|---------------------------|


No me impresionas con tu carro
e|-0-0-0-0-----------------|
b|---------3-3-0-1-1-------|
g|-------------------------|
d|-------------------------|
a|-------------------------|
E|-------------------------|

Tu dinero,  tus regalos y tu forma de vestir
e|-------------------------------|
b|---1-1-----1-1-----1-1-0-0-----|
g|-0-----0-0-----0-0---------2-0-|
d|-------------------------------|
a|-------------------------------|
E|-------------------------------|


No te equivoques corazón,
porque no hay nada que se venda aquí.
e|-1-1-1-1-0-0---1-3-1-0---------0-----|
b|-------------3---------3-3-3-1---3-1-|
g|-------------------------------------|
d|-------------------------------------|
a|-------------------------------------|
E|-------------------------------------|

ESTRIBILLO:
Tienes complejo de Don Juan
   C
e|-----------------|
b|-------1-0-0-----|
g|-----0-------2-0-|
d|---2-------------|
a|-3---------------|
E|-----------------|

Y en el celebro
e|-----------|
b|-3---3-----|
g|---0---0-0-|
d|-----------|
a|-----------|
E|-----------|

Tres neuronas que no piensan más que en Sexo.
e|-1-1-1-0-0-----0---0-----|
b|-----------3-1---1---1---|
g|-----------------------0-|
d|-------------------------|
a|-------------------------|
E|-------------------------|


Aparentas ser el hombre más perfecto
e|-------------------------|
b|-1-1-1-0-0-----3---3-----|
g|-----------2-0---0---0-0-|
d|-------------------------|
a|-------------------------|
E|-------------------------|
Y que lejos estás
e|-1-1-1-0---0-(0-1-3)-|
b|---------3-----------|
g|---------------------|
d|---------------------|
a|---------------------|
E|---------------------|

Me vale lo que te digan.
e|-3-3-3-3-3-3-----|
b|-------------6-6-|
g|-----------------|
d|-----------------|
a|-----------------|
E|-----------------|

Ni te vistas que no vas.
e|---5-3-3-------|
b|---------3-----|
g|-5---------4-5-|
d|---------------|
a|---------------|
E|---------------|

INTERMEDIO:

e|--------------------0------0-|
b|-------------1--1-3----1-3---|
g|-----------------------------|
d|-2-2-2-0-0-------------------|
a|-----------3-3---------------|
E|-----------------------------|


e|-------------------------------|
b|---------------0--0-1-3--0-1-3-|
g|-------------------------------|
d|-2-2-2-2-0-0-------------------|
a|-------------3-2---------------|
E|-------------------------------|

e|-------------------------|
b|-------------------------|
g|---0-------------0-------|
d|-3---3-3-2-2-0-3---3-2-0-|
a|-------------------------|
E|-------------------------|

e|----------0-------|
b|------------3-1-1-|
g|------------------|
d|-0-2-0------------|
a|-------3-3--------|
E|------------------|


ESTROFAS 2:
El panorama está muy claro
e|---0-0-0-----------|
b|---------3-3-0-1-1-|
g|-0-----------------|
d|-------------------|
a|-------------------|
E|-------------------|

Te criaron como el niño consentido de Mamá.
e|-------------------------------|
b|---1-1-----1-1-----1-1-0-0-----|
g|-0-----0-0-----0-0---------2-0-|
d|-------------------------------|
a|-------------------------------|
E|-------------------------------|

Ritmo:
e|---------------|
b|-0---0--0----0-|
g|----2------2---|
d|---------------|
a|---------------|
E|---------------|

Se de tu falsa independencia
 b|-1-1-1-1-0-0---1---|
g|--------------3---3-|
d|--------------------|
a|--------------------|
E|--------------------|

Y que tus cuentas y tus tarjetas son por tu Papá.
b|-----------------------0-0-|
g|-3-3-3-1-1-1-0-0-0-1-3-----|
d|---------------------------|
a|---------------------------|
E|---------------------------|
C, Arpegiado

Y reconozco que eres guapo
e|-0-0-0-3-0---------------|
b|-----------3-0-1-1-------|
g|-------------------------|
d|-------------------------|
a|-------------------------|
E|-------------------------|

Y serías un buen partido si cambiaras de actitud.
e|-------------------------------|
b|---1-1-----1-1-----1-1-0-0-----|
g|-0-----0-0-----0-0---------2-0-|
d|-------------------------------|
a|-------------------------------|
E|-------------------------------|

Pero te encuentro tan vacío que no quiero un hombre como tú.
e|-1-1-1-1-0-0---1-3-1-0---------0-----|
b|-------------3---------3-3-3-1---3-1-|
g|-------------------------------------|
d|-------------------------------------|
a|-------------------------------------|
E|-------------------------------------|

¡El resto son pequeñas variaciones del estribillo!

            
            
Suggest correction
Creating personal tab
Creating personal tab
You can edit any tab online and save it as your Personal.

You can edit, replace or remove any tab part or add personal notes – all changes will be seen only by you.

Personal tabs can be accessed anytime from any device, even offline.
Learn more »
Give kudos to tab author, rate the tab!
1 2 3 4 5
comments
print report bad tab
guest
Wanna post a correction for this tab? Suggest correction