Oops, an error
Loading. Please wait.

Asturias Tab

version 1
version 1

Whole song

Interactive

311,510 views 855 this week
8 commentsread comments
1 2 3 4 5
excellent!
x 85
add to favorites
launch autoscroll
font size
0
reset
how to read this tab
guitar tuner
Tab Pro tools
  • play this tab
  • loop segment
  • change instrument
  • show fretboard
  • metronome
×
Best way to learn
"Asturias"
Autoscroll
slow
fast
+/-
esc
set tempo
stop
Contributor
Difficulty
advanced
Asturias                                     
Isaac Albéniz

      S S S S  S S S S S S  S S    S S S S  S S S S S S  S S  
E||-----------------------------|----------------------------|
B||-----0---0----0---0---0----0-|----0---0----0---0---0----0-|
G||*----------------------------|----------------------------|
D||*------9---10---7---9--------|------9---10---7---9--------|
A||---7--------------------10---|--7--------------------10---|
E||-----------------------------|----------------------------|

    S S S S  S S S S S S  S S    S S S S  S S S S S S  S S  
e|----------------------------|----------------------------|
B|----0---0----0---0---0----0-|----0---0----0---0---0----0-|
G|----------------------------|----------------------------|
D|------9---10---7---9--------|--7------------7------------|
A|--7--------------------10---|------9---10-------9---10---|
E|----------------------------|----------------------------|

    S S S S  S S S S S S  S S    S S S S  S S S S S S  S S  
e|----------------------------|----------------------------|
B|----0---0----0---0---0----0-|----0---0----0---0---0----0-|
G|----------------------------|----------------------------|
D|------9---10---7---9--------|------9---10---7---9--------|
A|--7--------------------10---|--7--------------------10---|
E|----------------------------|----------------------------|

    S S S S  S S S S S S  S S    S S S S  S S S S  S S S S  
e|----------------------------|----------------------------|
B|----0---0----0---0---0----0-|----0---0----0---0----0---0-|
G|----------------------------|----------------------------|
D|------9---10---7---9--------|--7-------------------------|
A|--7--------------------10---|------9---10---7------------|
E|----------------------------|-------------------10---8---|

    S S S S  S S S S S S S S    S S S S  S S S S S S S S  
e|---------------------------|---------------------------|
B|----0---0----0---0---0---0-|----0---0----0---0---0---0-|
G|---------------------------|---------------------------|
D|------9---10---7---9-------|------9---10---7---9-------|
A|-----------------------9---|-----------------------9---|
E|--7------------------------|--7------------------------|

    S S S S S S S S  S S  S S    S S  S S S S S S  S S S S  
e|----------------------------|----------------------------|
B|----0---0---0---0----0----0-|----0----0---0---0----0---0-|
G|----------------------------|----------------------------|
D|----------7---9---10---12---|--9---10---7---9------------|
A|------9---------------------|-------------------10---9---|
E|--7-------------------------|----------------------------|

    S S S S  S S S S S S S S    S S S S  S S S S S S S S  
e|---------------------------|---------------------------|
B|----0---0----0---0---0---0-|----0---0----0---0---0---0-|
G|---------------------------|---------------------------|
D|------9---10---7---9-------|------9---10---7---9-------|
A|-----------------------9---|-----------------------9---|
E|--7------------------------|--7------------------------|

    S S S S S S  S S  S S S S     S S S S S S S S S S S S  
e|----------------------------|---------------------------|
B|----0---0---0----0----0---0-|-----0---0---0---0---0---0-|
G|----------------------------|---------------------------|
D|------7---9---10---12---9---|--10---7---9---5---7---4---|
A|----------------------------|---------------------------|
E|--7-------------------------|---------------------------|

    |-3-| |-3-| |-3-| |-3-| |-3-| |-3-|    |-3-| |-3-| |-3-| |-3-| |-3-| |-3-|  
    S S S S S S S S S S S S S S S S S S    S S S S S S S S S S S S S S S S S S  
e|------7-----7-----7-----7-----7-----7-|------7-----7-----7-----7-----7-----7-|
B|----0-----0-----0-----0-----0-----0---|----0-----0-----0-----0-----0-----0---|
G|--------4-----5-----------4-----0-----|--------4-----5-----------4-----0-----|
D|--------------------7-----------------|--------------------7-----------------|
A|--7-----------------------------------|--7-----------------------------------|
E|--0-----------------------------------|--0-----------------------------------|


    |-3-| |-3-| |-3-| |-3-| |-3-| |-3-|    |-3-| |-3-| |-3-| |-3-| |-3-| |-3-|  
    S S S S S S S S S S S S S S S S S S    S S S S S S S S S S S S S S S S S S  
e|------7-----7-----7-----7-----7-----7-|------7-----7-----7-----7-----7-----7-|
B|----0-----0-----0-----0-----0-----0---|----0-----0-----0-----0-----0-----0---|
G|--------4-----5-----------4-----0-----|--------------------------------------|
D|--------------------7-----------------|--7-----4-----5-----7-----4-----5-----|
A|--7-----------------------------------|--------------------------------------|
E|--0-----------------------------------|--------------------------------------|

    |-3-| |-3-| |-3-| |-3-| |-3-| |-3-|    |-3-| |-3-| |-3-| |-3-| |-3-| |-3-|  
    S S S S S S S S S S S S S S S S S S    S S S S S S S S S S S S S S S S S S  
e|------7-----7-----7-----7-----7-----7-|------7-----7-----7-----7-----7-----7-|
B|----0-----0-----0-----0-----0-----0---|----0-----0-----0-----0-----0-----0---|
G|--------4-----5-----------4-----0-----|--------4-----5-----------4-----0-----|
D|--------------------7-----------------|--------------------7-----------------|
A|--7-----------------------------------|--7-----------------------------------|
E|--0-----------------------------------|--0-----------------------------------|

    |-3-| |-3-| |-3-| |-3-| |-3-| |-3-|    |-3-| |-3-| |-3-| |-3-| |-3-| |-3-|  
    S S S S S S S S S S S S S S S S S S    S S S S S S S S S S S S S S S S S S  
e|------7-----7-----7-----7-----7-----7-|------7-----7-----7-----7-----7-----7-|
B|----0-----0-----0-----0-----0-----0---|----0-----0-----0-----0-----0-----0---|
G|--------4-----5-----------4-----0-----|--------------------------------------|
D|--------------------7-----------------|--7-----4-----5-----------------------|
A|--7-----------------------------------|--------------------7-----5-----3-----|
E|--0-----------------------------------|--------------------------------------|

  ^                                    ^                                  
       |-3-|  |-3-| |-3-| |-3-| |-3-|       |-3-|  |-3-| |-3-| |-3-| |-3-|  
    E  S S S  S S S S S S S S S S S S    E  S S S  S S S S S S S S S S S S  
e|--7---------------------------------|--7---------------------------------|
B|--7----0-0----0-0---0-0---0-0---0-0-|--7----0-0----0-0---0-0---0-0---0-0-|
G|--8---------------------------------|--8---------------------------------|
D|--9--9-----10-----7-----9-----------|--9--9-----10-----7-----9-----------|
A|--9---------------------------9-----|--9---------------------------9-----|
E|--7---------------------------------|--7---------------------------------|

  ^                                                                            
       |-3-| |-3-| |-3-|  |-3-|  |-3-|    |-3-|  |-3-| |-3-| |-3-|  |-3-| |-3-|  
    E  S S S S S S S S S  S S S  S S S    S S S  S S S S S S S S S  S S S S S S  
e|--7----------------------------------|----------------------------------------|
B|--7----0-0---0-0---0-0----0-0----0-0-|----0-0----0-0---0-0---0-0----0-0---0-0-|
G|--8----------------------------------|----------------------------------------|
D|--9--------7-----9-----10-----12-----|--9-----10-----7-----9------------9-----|
A|--9--9-------------------------------|---------------------------10-----------|
E|--7----------------------------------|----------------------------------------|


  ^                                    ^                                  
       |-3-|  |-3-| |-3-| |-3-| |-3-|       |-3-|  |-3-| |-3-| |-3-| |-3-|  
    E  S S S  S S S S S S S S S S S S    E  S S S  S S S S S S S S S S S S  
e|--7---------------------------------|--7---------------------------------|
B|--7----0-0----0-0---0-0---0-0---0-0-|--7----0-0----0-0---0-0---0-0---0-0-|
G|--8---------------------------------|--8---------------------------------|
D|--9--9-----10-----7-----9-----------|--9--9-----10-----7-----9-----------|
A|--9---------------------------9-----|--9---------------------------9-----|
E|--7---------------------------------|--7---------------------------------|

  ^                                                                            
       |-3-| |-3-| |-3-|  |-3-|  |-3-|    |-3-|  |-3-| |-3-| |-3-|  |-3-| |-3-|  
    E  S S S S S S S S S  S S S  S S S    S S S  S S S S S S S S S  S S S S S S  
e|--7----------------------------------|----------------------------------------|
B|--7----0-0---0-0---0-0----0-0----0-0-|----0-0----0-0---0-0---0-0----0-0---0-0-|
G|--8----------------------------------|----------------------------------------|
D|--9--------7-----9-----10-----12-----|--9-----10-----7-----9------------9-----|
A|--9--9-------------------------------|---------------------------10-----------|
E|--7----------------------------------|----------------------------------------|

   ^                                       ^                                    
        |-3-|  |-3-|  |-3-| |-3-|  |-3-|        |-3-|  |-3-|  |-3-| |-3-|  |-3-|  
     E  S S S  S S S  S S S S S S  S S S     E  S S S  S S S  S S S S S S  S S S  
e|--12-----------------------------------|--12-----------------------------------|
B|---0----0-0----0-0----0-0---0-0----0-0-|---0----0-0----0-0----0-0---0-0----0-0-|
G|---0-----------------------------------|---0-----------------------------------|
D|---9--9-----10------------9------------|---9--9-----10------------9------------|
A|--10---------------12-----------10-----|--10---------------12-----------10-----|
E|---0-----------------------------------|---0-----------------------------------|

   ^                                    
        |-3-|  |-3-|  |-3-| |-3-|  |-3-|  
     E  S S S  S S S  S S S S S S  S S S  
e|--12-----------------------------------|
B|---0----0-0----0-0----0-0---0-0----0-0-|
G|---0-----------------------------------|
D|---9--9-----10------------9------------|
A|--10---------------12-----------10-----|
E|---0-----------------------------------|

     |-3-| |-3-|  |-3-|  |-3-| |-3-|  |-3-|  
     S S S S S S  S S S  S S S S S S  S S S  
e|------------------------------------------|
B|-----0-0---0-0----0-0----0-0---0-0----0-0-|
G|------------------------------------------|
D|------------------------------------------|
A|--12-----9-----10-----12-----9-----10-----|
E|------------------------------------------|

   ^                                     
         |-3-|  |-3-| |-3-|  |-3-|  |-3-|  
     E   S S S  S S S S S S  S S S  S S S  
e|--12-------8------8-----8------8------8-|
B|---8------------------------------------|
G|---9-----9------9-----9------9------9---|
D|---8--10-----12-----9-----10------------|
A|--10-----------------------------10-----|
E|---8------------------------------------|

   ^                                     
         |-3-|  |-3-| |-3-|  |-3-|  |-3-|  
     E   S S S  S S S S S S  S S S  S S S  
e|--12-------8------8-----8------8------8-|
B|---8------------------------------------|
G|---9-----9------9-----9------9------9---|
D|---8--10-----12-----9-----10------------|
A|--10-----------------------------10-----|
E|---8------------------------------------|

   ^                                     
         |-3-|  |-3-| |-3-|  |-3-|  |-3-|  
     E   S S S  S S S S S S  S S S  S S S  
e|--12-------8------8-----8------8------8-|
B|---8------------------------------------|
G|---9-----9------9-----9------9------9---|
D|---8--10-----12-----9-----10------------|
A|--10-----------------------------10-----|
E|---8------------------------------------|

                                          ^                                  
    |-3-| |-3-|  |-3-| |-3-| |-3-| |-3-|       |-3-|  |-3-| |-3-| |-3-| |-3-|  
    S S S S S S  S S S S S S S S S S S S    E  S S S  S S S S S S S S S S S S  
e|------8-----8------8-----8-----8-----8-|--7------7------7-----7-----7-----7-|
B|----7-----7------7-----7-----7-----7---|--7----7------7-----7-----7-----7---|
G|---------------------------------------|--8---------------------------------|
D|--7------------------7-----------------|--9--9-----10-----8-----9-----------|
A|--------9-----10-----------7-----9-----|--9---------------------------9-----|
E|---------------------------------------|--7---------------------------------|

   ^                                       ^                                  
         |-3-|  |-3-| |-3-|  |-3-|  |-3-|       |-3-|  |-3-| |-3-| |-3-| |-3-|  
     E   S S S  S S S S S S  S S S  S S S    E  S S S  S S S S S S S S S S S S  
e|---8-------8------8-----8------8------8-|--7------7------7-----7-----7-----7-|
B|---8------------------------------------|--7----7------7-----7-----7-----7---|
G|---9-----9------9-----9------9------9---|--8---------------------------------|
D|---8--10-----12-----9-----10------------|--9--9-----10-----8-----9-----------|
A|--10-----------------------------10-----|--9---------------------------9-----|
E|---8------------------------------------|--7---------------------------------|

   ^                                       ^                                  
         |-3-|  |-3-| |-3-|  |-3-|  |-3-|       |-3-|  |-3-| |-3-| |-3-| |-3-|  
     E   S S S  S S S S S S  S S S  S S S    E  S S S  S S S S S S S S S S S S  
e|---8-------8------8-----8------8------8-|--7------7------7-----7-----7-----7-|
B|---8------------------------------------|--7----7------7-----7-----7-----7---|
G|---9-----9------9-----9------9------9---|--8---------------------------------|
D|---8--10-----12-----9-----10------------|--9--9-----10-----8-----9-----------|
A|--10-----------------------------10-----|--9---------------------------9-----|
E|---8------------------------------------|--7---------------------------------|

    |-3-| |-3-| |-3-| |-3-| |-3-| |-3-|    |-3-| |-3-| |-3-| |-3-| |-3-| |-3-|  
    S S S S S S S S S S S S S S S S S S    S S S S S S S S S S S S S S S S S S  
e|------7-----7-----7-----7-----7-----7-|------7-----7-----7-----7-----7-----7-|
B|----0-----0-----0-----0-----0-----0---|----7-----7-----7-----7-----7-----7---|
G|--------------------------------------|--------------------------------------|
D|--7-----4-----5-----7-----4-----5-----|--------4-----5-----7-----4-----5-----|
A|--------------------------------------|--7-----------------------------------|
E|--------------------------------------|--------------------------------------|

    |-3-| |-3-| |-3-| |-3-| |-3-| |-3-|                               
    S S S S S S S S S S S S S S S S S S    S S S S  S S S S S S  S S  
e|------7-----7-----7-----7-----7-----7-|----------------------------|
B|----7-----7-----7-----7-----7-----7---|----0---0----0---0---0----0-|
G|--------------------------------------|----------------------------|
D|--------4-----5-----------0-----------|------9---10---7---9--------|
A|--7-----------------7-----------3-----|-----------------------10---|
E|--------------------------------------|--7-------------------------|

    S S S S  S S S S S S  S S    S S S S  S S S S S S  S S  
e|----------------------------|----------------------------|
B|----0---0----0---0---0----0-|----0---0----0---0---0----0-|
G|----------------------------|----------------------------|
D|--7------------7------------|---------------7------------|
A|------9---10-------9---10---|--7---9---10-------9---10---|
E|----------------------------|----------------------------|

                                 |-3-| |-3-| |-3-|  |-3-| |-3-| |-3-|  
    S S S S  S S S S  S S S S    S S S S S S S S S  S S S S S S S S S  
e|----------------------------|---------------------------------------|
B|----0---0----0---0----0---0-|------7-----7-----7------7-----7-----7-|
G|----------------------------|----8-----8-----8------8-----8-----8---|
D|----------------------------|--------------9-----10-----8-----9-----|
A|--7---9---10---7------------|--------9------------------------------|
E|-------------------10---8---|--7-L-L-L-L-L-L-L-L--------------------|

    |-3-| |-3-|  |-3-| |-3-| |-3-|  |-3-|  
    S S S S S S  S S S S S S S S S  S S S  
e|------0-----0------0-----0-----0------0-|
B|----8-----8------8-----8-----8------8---|
G|--------0------------7------------------|
D|--------------10-----------9-----10-----|
A|----------------------------------------|
E|--7-L-L-L-L-L--L-L-L--------------------|

    |-3-| |-3-| |-3-|  |-3-| |-3-| |-3-|  
    S S S S S S S S S  S S S S S S S S S  
e|---------------------------------------|
B|------7-----7-----7------7-----7-----7-|
G|----8-----8-----8------8-----8-----8---|
D|--------------9-----10-----8-----9-----|
A|--------9------------------------------|
E|--7-L-L-L-L-L-L-L-L--------------------|

    |-3-| |-3-|  |-3-| |-3-| |-3-|  |-3-|  
    S S S S S S  S S S S S S S S S  S S S  
e|------0-----0------0-----0-----0------0-|
B|----8-----8------8-----8-----8------8---|
G|--------0------------7------------------|
D|--------------10-----------9-----10-----|
A|----------------------------------------|
E|--7-L-L-L-L-L--L-L-L--------------------|

    |-3-| |-3-| |-3-|  |-3-| |-3-| |-3-|  
    S S S S S S S S S  S S S S S S S S S  
e|---------------------------------------|
B|------7-----7-----7------7-----7-----7-|
G|----8-----8-----8------8-----8-----8---|
D|--------------9-----10-----8-----9-----|
A|--------9------------------------------|
E|--7-L-L-L-L-L-L-L-L--------------------|

    |-3-|  |-3-| |-3-|  |-3-| |-3-| |-3-|                             
    S S S  S S S S S S  S S S S S S S S S    S S S S S S S S S S S S  
e|----------------------------------------|------------------------7-|
B|------7------7-----7------7-----7-----7-|------------0-0-----7-7---|
G|----8------8-----8------8-----8-----8---|----------------8-8-------|
D|--9-----10-----8-----10-----9-----------|--------4-4---------------|
A|----------------------------------9-----|----6-6-------------------|
E|----------------------------------------|--7-----------------------|

    S S S  S  S  S  S  S  S  S  S  S     H.              Q    Q    Q     
e|--7-----------------11-11-14-14-19-|--19------------|-----------------|
B|--------------12-12----------------|---0------------|--0--------------|
G|----8-8-11-11----------------------|----------------|-----------------|
D|-----------------------------------|--13------------|--4--------------|
A|-----------------------------------|----------------|--6--------------|
E|-----------------------------------|----------------|--7--------------|

    H        E  E      Q.     S S E  E     H        Q       Q      H         
e|--7--------5--7--|--10------7-8-7--5--|--7-------------|-------<>2--------|
B|-----------------|--------------------|-----------4----|--L---------------|
G|-----------------|--------------------|-----------4----|--L---------------|
D|--9--------7--9--|--12----------9--7--|--9--------4----|--L---------------|
A|-----------------|--------------------|-----------2----|--L---------------|
E|-----------------|--------------------|----------------|------------------|

    H        E  E      Q.     S S E  E     H        Q       Q      H         
e|--7--------5--7--|--10------7-8-7--5--|--7-------------|-------<>2--------|
B|-----------------|--------------------|-----------4----|--L---------------|
G|-----------------|--------------------|-----------4----|--L---------------|
D|--9--------7--9--|--12----------9--7--|--9--------4----|--L---------------|
A|-----------------|--------------------|-----------2----|--L---------------|
E|-----------------|--------------------|----------------|------------------|

    H        Q       E  S S E  E  E  E     H        Q       Q      H         
e|--7--------6----|--L--3-5-3--2--0--3--|--2-------------|-------<>2--------|
B|----------------|---------------------|-----------4----|--L---------------|
G|----------------|---------------------|-----------4----|--L---------------|
D|--9--------8----|--L------5--4--2--5--|--4--------4----|--L---------------|
A|----------------|---------------------|-----------2----|--L---------------|
E|----------------|---------------------|----------------|------------------|
                                                      ^       ^             
    H         E  E     E  S T T E  E  E  E     H        Q       H.            
e|--7---------8--7--|--6--2-3-5-3--2--0--3--|--2-------------|---------------|
B|------------------|-----------------------|-----------5----|--4------------|
G|------------------|-----------------------|-----------3----|--4------------|
D|--9--------10--9--|--8--4-----5--4-----5--|--4--------4----|--4------------|
A|------------------|-----------------7-----|-----------3----|--2------------|
E|------------------|-----------------------|----------------|---------------|

    Q    H           Q    T T S E  E  E     Q    H             Q    Q    Q     
e|-------0--------|-------------------8--|-------0--------|-------------------|
B|-------7--------|-------4-6-4----4-----|-------7--------|---------0----L----|
G|----------------|-----------5-7--------|----------------|-------------------|
D|--5-------------|--4-------------------|--5-------------|---------8----7----|
A|----------------|----------------------|----------------|--6g9---------6----|
E|----------------|----------------------|----------------|-------------------|

    Q    Q    Q       Q    Q    Q       Q    Q    Q       Q    H         
e|-----------------|-----------------|-----------------|----------------|
B|------------0----|------------0----|-------7----0----|----------------|
G|-----------------|-----------------|-----------------|-------9--------|
D|-------5---------|-------4---------|--5--------------|-------8--------|
A|--7--------------|--5--------------|-----------------|--9-------------|
E|-----------------|-----------------|--8--------------|--8-------------|

    Q    Q    Q       E  E   E   S S  E  E     Q    Q    Q     
e|-----------------|---------0--------0-----|-----------------|
B|------------0----|------------------------|------------0----|
G|------------8----|--------11-------11-----|------------8----|
D|-----------------|------------------------|-----------------|
A|-------9---------|--0------------------0--|-------9---------|
E|--7--------------|-----7---8--10-8--7-----|--7--------------|

    E  E   E   S S  E  E     Q    Q    Q       E  E   E   S   S E  E   
e|---------0--------0-----|-----------------|-------------------------|
B|------------------------|------------0----|-------------------------|
G|--------11-------11-----|------------8----|-------------------------|
D|------------------------|-----------------|--7--9--10--12p-10-9--7--|
A|--0------------------0--|-------9---------|-------------------------|
E|-----7---8--10-8--7-----|--7--------------|-------------------------|

    S S S S S S S S S S S S    S S S S S S S S S S S S    Q    Q    Q     
e|--------------------------|--------------------------|-----------------|
B|----0---0---0---0---0---0-|----0---0---0---0---0---0-|------------0----|
G|--------------------------|--------------------------|------------8----|
D|--9---8-------7---6-------|--5---4-------3---2-------|-----------------|
A|----------9-----------7---|----------6-----------3---|-------9---------|
E|--------------------------|--------------------------|--7--------------|

    E  E  E   S  S E  E     Q    Q    Q       E  E  E   S  S E  E   
e|--------5--------5-----|------------4----|--------5--------5-----|
B|--------6--------6-----|------------5----|--------6--------6-----|
G|-----------------------|-------4---------|-----------------------|
D|-----------------------|-----------------|-----------------------|
A|--------5h--7p-5-------|-----------------|--------5h--7p-5-------|
E|--7--8-----------8--7--|--0--------------|--7--8-----------8--7--|

    Q    Q    Q       E  E  E  S  S E  E     E  E  E  E  E  E   
e|------------4----|--------0-------------|--------------------|
B|------------5----|--1--4-----0h-1----0--|-----0-----0-----0--|
G|-------4---------|----------------2-----|--0-----------------|
D|-----------------|--2-----2-------1-----|--2-----4-----5-----|
A|-----------------|--0-------------------|--------6-----7-----|
E|--0--------------|--------3-------2-----|--0-----7-----0-----|

    E  E  E  S S E  E     E  E  E  E  E  E     E  E  E  E  T T S E   
e|--0--2--3----0-------|--------------------|--------5--8--6-8-6-5--|
B|-----------3---1--3--|--0--3-----3--0--3--|--6--8-----------------|
G|--0-----0------------|--------3-----------|-----------------------|
D|---------------4-----|--0-----0-----0-----|-----------------------|
A|--3-----2------0-----|--------------------|-----------------------|
E|---------------------|--3-----2-----3-----|-----------------------|

    E  E  T  T S E  E  E     E  E  E  S S E  E     Q    Q    Q     
e|--8--5------------5--8--|---------------------|-----------------|
B|--------8-10-8-7--------|--------5--7-5-------|------------4----|
G|------------------------|--5--7---------7--5--|------------4----|
D|------------------------|--4------------5-----|-----------------|
A|------------------------|--0------------7-----|-------9---------|
E|------------------------|---------------6-----|--7--------------|

    E  E  E  S  S E  E     Q    Q    Q       E  E  E  S  S E  E   
e|--------5-------5-----|-----------------|--------5-------5-----|
B|--------7-------7-----|------------4----|--------7-------7-----|
G|----------------------|------------4----|----------------------|
D|-----0----------------|-----------------|-----0----------------|
A|--------7--9p-7-5-----|-------9---------|--------7--9p-7-5-----|
E|--8----------------8--|--7--------------|--8----------------8--|

                       |-3-| |-3-| |-3-| |-3-| |-3-| |-3-|  
    Q    Q    Q        S S S S S S S S S S S S S S S S S S  
e|-----------------|-------7-----7-----7-----7-----7-----7-|
B|------------4----|-----8-----8-----8-----8-----8-----8---|
G|------------4----|---------------------7-----------------|
D|-----------------|---------8-----9-----------8-----9-----|
A|-------9---------|--10-----------------------------------|
E|--7--------------|---------------------------------------|

     |-3-| |-3-| |-3-| |-3-| |-3-| |-3-|  
     S S S S S S S S S S S S S S S S S S  
e|---------------------------------------|
B|-------7-----7-----7-----7-----7-----7-|
G|-----7-----7-----7-----7-----7-----7---|
D|---------------------7-----------------|
A|---------8-----9-----------8-----9-----|
E|--10-----------------------------------|

    T T T T T T T T  T T T T T T T T  T T T T T T T T    H        E  E   
e|--------0-------0--------0-------0--------0-------0-|--7--------5--7--|
B|----------------------------------------------------|--0--------------|
G|------0-------0--------0-------0--------0-------0---|-----------------|
D|----8-------8--------8-------8--------8-------8-----|-----------7--9--|
A|----------9-------10-------7------------------------|-----------------|
E|--8--------------------------------10-------8-------|--7--------------|

     H        T T S E     H        Q       Q      H           H        E  E   
e|--10--------7-8-7-5--|--7-------------|-------<>2--------|--7--------5--7--|
B|---------------------|--0--------4----|--L---------------|--0--------------|
G|---7-----------------|-----------4----|--L---------------|-----------------|
D|----------------9-7--|-----------4----|--L---------------|-----------7--9--|
A|---------------------|-----------2----|--L---------------|-----------------|
E|---------------------|----------------|------------------|--7--------------|

     H        T T S E     Q    Q    Q         Q       H        Q     
e|--10--------7-8-7-5--|--7----0----------||-------|--0-------------|
B|---------------------|--0---------4-----||-------|----------------|
G|---7-----------------|-------3----4----*||--2----|--0--------2----|
D|----------------9-7--|-------4----4----*||-------|--2-------------|
A|---------------------|-------3----2-----||-------|--3-------------|
E|---------------------|------------------||-------|----------------|

    H.              H        Q       H.              H        Q     
e|---------------|----------------|---------------|--1-------------|
B|--0------------|--1-------------|---------------|--1--------2----|
G|--0------------|----------------|--0------------|--2--------3----|
D|--0------------|--2--------4----|--2------------|----------------|
A|---------------|--0-------------|--2------------|----------------|
E|--3------------|----------------|--3------------|----------------|

    H        Q       H.              Q    Q    Q       S S S S  S S S S S S  S S  
e|--2--------0----|--0------------|--L--------------|----------------------------|
B|--1-------------|--1------------|--L----0---------|----0---0----0---0---0----0-|
G|--2-------------|--2------------|--L----0---------|----------------------------|
D|----------------|---------------|------------7----|------9---10---7---9--------|
A|----------------|--2------------|--L---------9----|--7--------------------10---|
E|----------------|---------------|-----------------|----------------------------|

                                    |-3-| |-3-| |-3-| |-3-| |-3-|  
    S S S S  S S S S S S  S S    E  S S S S S S S S S S S S S S S  
e|----------------------------|-----------------------------------|
B|----0---0----0---0---0----0-|-----------------------------------|
G|----------------------------|---------0-----0-----0-----0-----0-|
D|------9---10---7---9--------|-----------------------------------|
A|--7--------------------10---|--7----7-----7-----7-----7-----7---|
E|----------------------------|-----8-----6-----8-----6-----8-----|

    |-3-| |-3-| |-3-| |-3-| |-3-| |-3-|                                   
    S S S S S S S S S S S S S S S S S S    H.              H.             
e|--------------------------------------|--0------------|---------------||
B|--------------------------------------|--0------------|---------------||
G|------0-----0-----0-----0-----0-----0-|--0------------|---------------||
D|--------------------------------------|--2------------|--2------------||
A|----7-----7-----7-----7-----7-----7---|--2------------|---------------||
E|--6-----8-----6-----8-----6-----8-----|--0------------|--0------------||



Duration Legend
---------------
W - whole
H - half
Q - quarter
E - 8th
S - 16th
T - 32nd
X - 64th
. - note dotted
|-n-|  - n-tuplets


Tablature Legend
----------------
L - tied note
x - dead note
g - grace note
(n) - ghost note
> - accentuded note
NH - natural harmonic
AH - artificial harmonic
TH - tapped harmonic
SH - semi harmonic
PH - pitch harmonic
h - hammer on
p - pull off
b - bend
br - bendRelease
pb - preBend
pbr - preBendRelease
brb - bendReleaseBend
\n/ - tremolo bar dip
\n - tremolo bar dive
-/n - tremolo bar Release up
/n\ - tremolo bar inverted dip
/n - tremolo bar return
-\n - tremolo bar Release down
S - shift slide
s - legato slide
/ -  slide into from below or out of upwards
\ -  slide into from above or out of downwards
~ - vibrato
W - wide vibrato
tr - trill
TP - tremolo picking
T - tapping
S - slap
P - pop
< - fade in
^ - brush up
v - brush down
comments
print report bad tab
8 comments total. Showing first comments.
+5 reply
Rensa wrote on November 13 2012, 01:42 pm

Great tab, i see lots of work has gone into this :D

+1 reply
frankiem436 wrote on March 18 2013, 11:07 am

this is so helpful! thanks! :D

+10 reply
ghbubba wrote on March 26 2013, 11:30 am

Wish I had 10 more fingers...

I want to post or [tab]
guest
You may want to rate the tab now too:
select rating
Please do not post tabs as comments. Select "correction" instead!