Oops, an error
Loading. Please wait.

Leyenda Asturias Tab

version 4
version 4

Whole song

87,395 views 174 this week
3 commentsread comments
1 2 3 4 5
excellent!
x 15
add to favorites
launch autoscroll
font size
0
reset
how to read this tab
guitar tuner
Autoscroll
slow
fast
+/-
esc
set tempo
stop
Help us to improve Ultimate-Guitar.com Take our survey!
×
Author
Difficulty
advanced
-----------------------------------------------------------------------------
                             LEYENDA - Isaac Albeniz
-----------------------------------------------------------------------------
Tabbed by:  Travis Wong
Email: travis_wong@hotmail.com

e||----------------------------|----------------------------|
B||----0---0----0---0---0----0-|----0---0----0---0---0----0-|
G||----------------------------|----------------------------|
D||------9---10---7---9--------|------9---10---7---9--------|
A||--7--------------------10---|--7--------------------10---|
E||----------------------------|----------------------------|
 
e|----------------------------|----------------------------|
B|----0---0----0---0---0----0-|----0---0----0---0---0----0-|
G|----------------------------|----------------------------|
D|------9---10---7---9--------|--7------------7------------|
A|--7--------------------10---|------9---10-------9---10---|
E|----------------------------|----------------------------|
 
e|----------------------------|----------------------------|
B|----0---0----0---0---0----0-|----0---0----0---0---0----0-|
G|----------------------------|----------------------------|
D|------9---10---7---9--------|------9---10---7---9--------|
A|--7--------------------10---|--7--------------------10---|
E|----------------------------|----------------------------|
                                                          
e|----------------------------|----------------------------|
B|----0---0----0---0---0----0-|----0---0----0---0----0---0-|
G|----------------------------|----------------------------|
D|------9---10---7---9--------|--7-------------------------|
A|--7--------------------10---|------9---10---7------------|
E|----------------------------|-------------------10---8---|
 
e|---------------------------|---------------------------|
B|----0---0----0---0---0---0-|----0---0----0---0---0---0-|
G|---------------------------|---------------------------|
D|------9---10---7---9-------|------9---10---7---9-------|
A|-----------------------9---|-----------------------9---|
E|--7------------------------|--7------------------------|
 
e|---------------------------|----------------------------|
B|----0---0---0---0----0---0-|----0----0---0---0----0---0-|
G|-----------------------7---|----------------------------|
D|----------7---9---10-------|--9---10---7---9------------|
A|------9--------------------|-------------------10---9---|
E|--7------------------------|----------------------------|
                                                     
e|---------------------------|---------------------------|
B|----0---0----0---0---0---0-|----0---0----0---0---0---0-|
G|---------------------------|---------------------------|
D|------9---10---7---9-------|------9---10---7---9-------|
A|-----------------------9---|-----------------------9---|
E|--7------------------------|--7------------------------|
                                                        
e|---------------------------|----------------------------|
B|----0---0---0----0---0---0-|-----0---0---0----0---0---0-|
G|-------------------7-------|----------------------------|
D|------7---9---10-------9---|--10---7---9--------7-------|
A|--------------------------|---------------10-------9---|
E|--7-----------------------|----------------------------|

e|-----7-----7-----7-----7-----7-----7-|------7-----7-----7-----7-----7-----7-|
B|---0-----0-----0-----0-----0-----0---|----0-----0-----0-----0-----0-----0---|
G|-------4-----5-----------4-----------|--------4-----5-----------4-----------|
D|-------------------7-----------5-----|--------------------7-----------5-----|
A|--7----------------------------------|--7-----------------------------------|
E|-------------------------------------|--------------------------------------|
                                                                           
e|-----7-----7-----7-----7-----7-----7-|------7-----7-----7-----7-----7-----7-|
B|----0----0-----0-----0-----0-----0---|----0-----0-----0-----0-----0-----0---|
G|-------4-----5-----------4-----------|--------------0-----------------------|
D|-------------------7-----------5-----|--7-----4-----------7-----4-----5-----|
A|--7----------------------------------|--------------------------------------|
E|-------------------------------------|--------------------------------------|
                                                                              
e|-----7-----7-----7-----7-----7-----7-|------7-----7-----7-----7-----7-----7-|
B|---0-----0-----0-----0-----0-----0---|----0-----0-----0-----0-----0-----0---|
G|-------4-----5-----------4-----------|--------4-----5-----------4-----------|
D|-------------------7-----------5-----|--------------------7-----------5-----|
A|--7----------------------------------|--7-----------------------------------|
E|--0----------------------------------|--------------------------------------|

e|-----7-----7-----7-----7-----7-----7-|------7-----7-----7-----7-----7-----7-|
B|---0-----0-----0-----0-----0-----0---|----0-----0-----0-----0-----0-----0---|
G|-------4-----5-----------4-----------|--------------------------------------|
D|-------------------7-----------5-----|--7-----4-----5-----------------------|
A|--7----------------------------------|--------------------7-----5-----------|
E|-------------------------------------|--------------------------------8-----|
                                                                       
e|--7---------------------------------|--7---------------------------------|
B|--7----0-0----0-0---0-0---0-0---0-0-|--7----0-0----0-0---0-0---0-0---0-0-|
G|--8---------------------------------|--8---------------------------------|
D|--9--9-----10-----7-----9-----------|--9--9-----10-----7-----9-----------|
A|--9---------------------------9-----|--9---------------------------9-----|
E|--7---------------------------------|--7---------------------------------|
 
e|--7--------------------------------|----------------------------------------|
B|--7---0-0---0-0---0-0----0-0---0-0-|----0-0----0-0---0-0---0-0----0-0---0-0-|
G|--8--------------------------7-----|----------------------------------------|
D|--9-------7-----9-----10-----------|--9-----10-----7-----9------------------|
A|--9-9------------------------------|---------------------------10-----9-----|
E|--7--------------------------------|----------------------------------------|
 
e|--7---------------------------------|--7---------------------------------|
B|--7----0-0----0-0---0-0---0-0---0-0-|--7----0-0----0-0---0-0---0-0---0-0-|
G|--8---------------------------------|--8---------------------------------|
D|--9--9-----10-----7-----9-----------|--9--9-----10-----7-----9-----------|
A|--9---------------------------9-----|--9---------------------------9-----|
E|--7---------------------------------|--7---------------------------------|
 
e|--7--------------------------------|----------------------------------------|
B|--7---0-0---0-0---0-0----0-0---0-0-|----0-0----0-0---0-0---0-0----0-0---0-0-|
G|--8--------------------------7-----|----------------------------------------|
D|--9-------7-----9-----10-----------|--9-----10-----7-----9------------9-----|
A|--9-9------------------------------|---------------------------10-----------|
E|--7--------------------------------|----------------------------------------|
 
e|--12---------------------------------|--12----------------------------------|
B|--0----0-0----0-0---0-0---0-0----0-0-|--0-----0-0----0-0---0-0---0-0----0-0-|
G|--0----------------------------------|--0-----------------------------------|
D|-----9-----10-----7-----9------------|------9-----10-----7-----9------------|
A|------------------------------10-----|-------------------------------10-----|
E|--0----------------------------------|--0-----------------------------------|
 
e|--12-------------------------------|----------------------------------------|
B|--0--0-0----0-0---0-0---0-0----0-0-|----0-0---0-0----0-0---0-0---0-0----0-0-|
G|--0--------------------------------|----------------------------------------|
D|---9-----10-----7-----9------------|--7------------------7------------------|
A|----------------------------10-----|--------9-----10-----------9-----10-----|
E|--0--------------------------------|----------------------------------------|
 
e|--12-------8------8-----8------8------8-|
B|--8-------------------------------------|
G|--9------9------9-----9------9------9---|
D|--8---10-----12-----9-----10------------|
A|--10-----------------------------10-----|
E|--8-------------------------------------|
 
e|--12-------8------8-----8------8------8-|
B|--8-------------------------------------|
G|--9------9------9-----9------9------9---|
D|--8---10-----12-----9-----10------------|
A|--10-----------------------------10-----|
E|--8-------------------------------------|
                                  
e|--12-------8------8-----8------8------8-|
B|--8-------------------------------------|
G|--9------9------9-----9------9------9---|
D|--8---10-----12-----9-----10------------|
A|--10-----------------------------10-----|
E|--8-------------------------------------|
 
e|------8-----8------8-----8-----8-----8-|--7------7------7-----7-----7-----7-|
B|----7-----7------7-----7-----7-----7---|--7---------------------------------|
G|---------------------------------------|--8----8------8-----8-----8-----8---|
D|--7------------------7-----------------|--9--9-----10-----8-----9-----------|
A|--------9-----10-----------7-----9-----|--9---------------------------9-----|
E|---------------------------------------|--7---------------------------------|
 
e|--8-------8------8-----8------8------8-|--7------7------7-----7-----7-----7-|
B|--8------------------------------------|--7---------------------------------|
G|--9-----9------9-----9------9------9---|--8----8------8-----8-----8-----8---|
D|--8--10-----12-----9-----10------------|--9--9-----10-----8-----9-----------|
A|--10----------------------------10-----|--9---------------------------9-----|
E|--8------------------------------------|--7---------------------------------|
 
e|--8------8------8-----8------8------8-|--7------7------7-----7-----7------7-|
B|--8-----------------------------------|--7----0------0-----0-----0------0---|
G|--9----9------9-----9------9------9---|--8----------------------------------|
D|--8---10---12-----9-----10------------|--9--9-----10-----7-----9------------|
A|--10---------------------------10-----|--9---------------------------10-----|
E|--8-----------------------------------|--7----------------------------------|
 
e|------7-----7------7-----7-----7------7-|
B|----0-----0------0-----0-----0------0---|
G|----------------------------------------|
D|--7------------------7------------------|
A|--------9-----10-----------9-----10-----|
E|----------------------------------------|
 
e|------7-----7------7-----7-----7------7-|
B|----0-----0------0-----0-----0------0---|
G|----------------------------------------|
D|---------------------7------------------|
A|--7-----9-----10-----------9-----10-----|
E|----------------------------------------|
 
e|------7-----7------7-----7------7-----7-|----------------------------|
B|----0-----0------0-----0------0-----0---|----0---0----0---0---0----0-|
G|----------------------------------------|----------------------------|
D|----------------------------------------|------9---10---7---9--------|
A|--7-----9-----10-----7------------------|-----------------------10---|
E|---------------------------10-----8-----|--7-------------------------|
 
e|----------------------------|----------------------------|
B|----0---0----0---0---0----0-|----0---0----0---0---0----0-|
G|----------------------------|----------------------------|
D|--7------------7------------|---------------7------------|
A|------9---10-------9---10---|--7---9---10-------9---10---|
E|----------------------------|----------------------------|
 
e|----------------------------|---------------------------------------|
B|----0---0----0---0----0---0-|------7-----7-----7------7-----7-----7-|
G|----------------------------|----8-----8-----8------8-----8-----8---|
D|----------------------------|--------------9-----10-----8-----9-----|
A|--7---9---10---7------------|--------9------------------------------|
E|-------------------10---8---|--7------------------------------------|
 
e|------0------0------0-----0-----0------0-|
B|----8------8------8-----8-----8------8---|
G|----------------------7------------------|
D|---------------10-----------9-----10-----|
A|--------10-------------------------------|
E|--7--------------------------------------|
                                        
e|---------------------------------------|
B|------7-----7-----7------7-----7-----7-|
G|----8-----8-----8------8-----8-----8---|
D|--------------9-----10-----8-----9-----|
A|--------9------------------------------|
E|--7------------------------------------|
 
e|------0------0------0-----0-----0------0-|
B|----8------8------8-----8-----8------8---|
G|----------------------7------------------|
D|---------------10-----------9-----10-----|
A|--------10-------------------------------|
E|--7--------------------------------------|
 
e|----------------------------------------|
B|------7-----7-----7------7-----7------7-|
G|----8-----8-----8------8-----8------8---|
D|--------------9-----10-----8-----10-----|
A|--------9-------------------------------|
E|--7-------------------------------------|
 
e|----------------------------------------|---------------------|
B|------7------7-----7------7-----7-----7-|------------------7--|
G|----8------8-----8------8-----8-----8---|---------------8-----|
D|--9-----10-----8-----10-----9-----------|------------9--------|
A|----------------------------------9-----|---------9-----------|
E|----------------------------------------|--7--11--------------|
 
e|-----------------11--14--|--19------------|---------------|--7--------5--7--|
B|--12---------12----------|----------------|--0------------|-----------------|
G|---------11--------------|----------------|---------------|--4--------2--4--|
D|-----13------------------|----------------|--4------------|-----------------|
A|-------------------------|----------------|--6------------|-----------------|
E|-------------------------|----------------|--7------------|-----------------|
 
e|--10--------7h8p7-5--|--7------------|-------14--------|--7--------5--7--|
B|---------------------|---------------|-----------------|-----------------|
G|--7------------------|---------------|--8--------------|-----------------|
D|------------9-----7--|--9------------|--9--------------|--9--------7--9--|
A|---------------------|---------------|--9--------------|-----------------|
E|---------------------|---------------|--7--------------|-----------------|
 
e|--10--------7h8p7-5--|--7------------|-------10--------|--7--------6----|
B|---------------------|---------------|--0--------------|----------------|
G|--7------------------|---------------|--0--------------|----------------|
D|------------9-----7--|--9------------|--0--------------|--9--------8----|
A|---------------------|---------------|-----------------|----------------|
E|---------------------|---------------|--3--------------|----------------|
 
e|------3h5p3-2--0--3--|--2------------|-------14--------|--7--------8---7--|
B|---------------------|---------------|--4--------------|------------------|
G|---------------------|---------------|--4--------------|------------------|
D|------5-----4--2--5--|--4------------|--4--------------|--9--------10--9--|
A|---------------------|---------------|--2--------------|------------------|
E|---------------------|---------------|-----------------|------------------|
 
e|--6-------------2--0--3--|--2--------0----|---------------|----------------|
B|-----7--8h-10p8----------|----------------|--4------------|-------3--------|
G|----------------------0--|-----------3----|--4------------|--0----4--------|
D|--8-------------4--2-----|--4--------4----|--4------------|----------------|
A|-----9--10---------------|-----------3----|--2------------|----------------|
E|-------------------------|----------------|---------------|----------------|
 
e|-------------------8--|----------------|------------------|-----------------|
B|-------4h7p4-3--4-----|-------3--------|--------0----0----|------------0----|
G|----------------------|--0----4--------|------------------|-------0---------|
D|--4-------------------|----------------|--------8----7----|-----------------|
A|----------------------|----------------|--6/9--------6----|--7--------------|
E|----------------------|----------------|------------------|-----------------|
                                                                      
e|-----------------|-----------------|-------0--------|-----------------|
B|------------0----|------------0----|----------------|-------4---------|
G|-----------------|-----------------|-------3--------|-------4---------|
D|-------4---------|-------4---------|----------------|------------4----|
A|--5--------------|--3--------------|----------------|--2--------------|
E|-----------------|-----------------|--2-------------|-----------------|
 
e|-----0------------|-----------------|--------0------------|-----------------|
B|------------------|-------4---------|---------------------|-------4---------|
G|------------------|-------4---------|---------------------|-------4---------|
D|--------0---------|------------4----|-----------0---------|------------4----|
A|--0--2--3----3p2--0--|--2-----------|--0--2--3----3p2--0--|--2--------------|
E|------------------|-----------------|---------------------|-----------------|
 
e|---------------------|--------------------|--------------------|
B|-----0--1--3p1-0-----|--0-----------------|--------------------|
G|--2---------------2--|-----3-----2--1-----|--0-----------------|
D|---------------------|--------4--------2--|-----4--1--3--2-----|
A|---------------------|--------------------|-----------------3--|
E|---------------------|--------------------|--------------------|
 
e|--------------|--------5------------|-----------------|--------5------------|
B|---------4----|---------------------|------------9----|--------6------------|
G|---------4----|--------5------------|------------9----|--------5------------|
D|----4---------|---------------------|------------9----|---------------------|
A|--2-----------|--------5--7p5-------|-------7---------|--------5--7p5-------|
E|--------------|--7--8---------8--7--|--0--------------|--7--8---------8--7--|
 
e|-----------------|--------0------------|--------------------|
B|------------9----|--1--4-----0-1----0--|-----0-----0-----0--|
G|------------9----|---------------2-----|--------------------|
D|------------9----|--2-----2------4-----|--5-----4-----5-----|
A|-------7---------|--0------------------|--7-----6-----7-----|
E|--0--------------|--------3------------|--------------------|
 
e|--0--2--3----0-------|--------------------|--------5--8--6h8p6-5--|
B|-----------3------3--|--0--3-----3--0--3--|--6--8-----------------|
G|--0-----0------5-----|--------3-----------|-----------------------|
D|--------0------4-----|--0-----0-----0-----|-----------------------|
A|--3-----2------0-----|--------------------|-----------------------|
E|---------------------|--3-----2-----3-----|-----------------------|
 
e|--8--5--------5--8--|--------------0-------|-----------------|
B|--------8--7--------|-----3h-5p--3---3--1--|------------4----|
G|--------------------|--5-------------0-----|------------4----|
D|--------------------|--4-------------2-----|-------4---------|
A|--------------------|----------------1-----|--2--------------|
E|--------------------|--5-------------------|-----------------|
 
e|------------------|-----------------|---------------------|-----------------|
B|------------------|------------4----|---------------------|------------4----|
G|------------------|------------4----|---------------------|------------4----|
D|--0--2--4p2-0-----|-------4---------|-----0--2--4p2-0-----|-------4---------|
A|--3------------3--|--2--------------|--3---------------3--|--2--------------|
E|------------------|-----------------|---------------------|-----------------|
 
e|----7-----7-----7-----7-----7-----7-|---------------------------------------|
B|--8-----8-----8-----8-----8-----8---|-------7-----7-----7-----7-----7-----7-|
G|------------------7-----------------|-----7-----7-----7-----7-----7-----7---|
D|------8-----9-----------8-----9-----|---------------------7-----------------|
A|--10--------------------------------|---------8-----9-----------8-----9-----|
E|------------------------------------|--10-----------------------------------|
 
e|----0-----0-----0-----0-----0-----0-|--7--------5--7--|--10--------7h8p7-5--|
B|------------------------------------|--0--------------|---------------------|
G|--------3-----3-----3-----3-----3---|-----------------|--7------------------|
D|------4-----5-----2-----0-----------|-----------7--9--|------------9-----7--|
A|--3---------------------------3-----|-----------------|---------------------|
E|------------------------------------|--7--------------|---------------------|
                                                                          
e|--7------------|-------14--------|--7--------5--7--|--10--------7h8p7-5--|
B|--0------------|-----------------|-----------------|---------------------|
G|---------------|--8--------------|-----------------|--7------------------|
D|---------------|--9--------------|--9--------7--9--|------------9-----7--|
A|---------------|--9--------------|-----------------|---------------------|
E|---------------|--7--------------|-----------------|---------------------|
 
e|--7--------0----|---------------|----------------------------|
B|----------------|--4------------|----0---0----0---0---0----0-|
G|-----------3----|--4------------|----------------------------|
D|--9--------4----|--4------------|------9---10---7---9--------|
A|-----------3----|--2------------|--7--------------------10---|
E|----------------|---------------|----------------------------|
 
e|----------------------------|----------------------------|
B|----0---0----0---0---0----0-|----0---0----0---0---0----0-|
G|----------------------------|----------------------------|
D|------9---10---7---9--------|------9---10---7---9--------|
A|--7--------------------10---|--7--------------------10---|
E|----------------------------|----------------------------|
 
e|----------------------------|----------------------------|
B|----0---0----0---0---0----0-|----0---0----0---0---0----0-|
G|----------------------------|----------------------------|
D|--7------------7------------|------9---10---7---9--------|
A|------9---10-------9---10---|--7--------------------10---|
E|----------------------------|----------------------------|
 
e|----------------------------|----------------------------|
B|----0---0----0---0---0----0-|----0---0----0---0---0----0-|
G|----------------------------|----------------------------|
D|------9---10---7---9--------|------9---10---7---9--------|
A|--7--------------------10---|--7--------------------10---|
E|----------------------------|----------------------------|
 
e|----------------------------|---------------------------|
B|----0---0----0---0----0---0-|----0---0----0---0---0---0-|
G|----------------------------|---------------------------|
D|--7-------------------------|------9---10---7---9-------|
A|------9---10---7------------|-----------------------9---|
E|-------------------10---8---|--7------------------------|
 
e|---------------------------|---------------------------|
B|----0---0----0---0---0---0-|----0---0---0---0----0---0-|
G|---------------------------|-----------------------7---|
D|------9---10---7---9-------|----------7---9---10-------|
A|-----------------------9---|------9--------------------|
E|--7------------------------|--7------------------------|
 
e|----------------------------|---------------------------|
B|----0----0---0---0----0---0-|----0---0----0---0---0---0-|
G|----------------------------|---------------------------|
D|--9---10---7---9------------|------9---10---7---9-------|
A|-------------------10---9---|-----------------------9---|
E|----------------------------|--7------------------------|
 
e|---------------------------|---------------------------|
B|----0---0----0---0---0---0-|----0---0---0----0---0---0-|
G|---------------------------|-------------------7-------|
D|------9---10---7---9-------|------7---9---10-------9---|
A|-----------------------9---|---------------------------|
E|--7------------------------|--7------------------------|
 
e|----------------------------|------7-----7------7-----7-----7------7-|
B|-----0---0---0----0---0---0-|----0-----0------0-----0-----0------0---|
G|----------------------------|----------------------------------------|
D|--10---7---9--------7-------|--------9-----10-----7-----9------------|
A|---------------10-------9---|--7------------------------------10-----|
E|----------------------------|----------------------------------------|
 
e|------7-----7------7-----7-----7------7-|
B|----0-----0------0-----0-----0------0---|
G|----------------------------------------|
D|--------9-----10-----7-----9------------|
A|--7------------------------------10-----|
E|----------------------------------------|
 
e|------7-----7------7-----7-----7------7-|
B|----0-----0------0-----0-----0------0---|
G|----------------------------------------|
D|--------9-----10-----7-----9------------|
A|--7------------------------------10-----|
E|----------------------------------------|
 
e|------7-----7------7-----7-----7------7-|
B|----0-----0------0-----0-----0------0---|
G|----------------------------------------|
D|--7------------------7------------------|
A|--------9-----10-----------9-----10-----|
E|----------------------------------------|
 
e|------7-----7------7-----7-----7------7-|
B|----0-----0------0-----0-----0------0---|
G|----------------------------------------|
D|--------9-----10-----7-----9------------|
A|--7------------------------------10-----|
E|----------------------------------------|
 
e|------7-----7------7-----7-----7------7-|
B|----0-----0------0-----0-----0------0---|
G|----------------------------------------|
D|--------9-----10-----7-----9------------|
A|--7------------------------------10-----|
E|----------------------------------------|
 
e|------7-----7------7-----7-----7------7-|
B|----0-----0------0-----0-----0------0---|
G|----------------------------------------|
D|--------9-----10-----7-----9------------|
A|--7------------------------------10-----|
E|----------------------------------------|
 
e|-----7-----7------7-----7------7-----7-|--7---------------------------------|
B|---0-----0------0-----0------0-----0---|--7----0-0----0-0---0-0---0-0---0-0-|
G|---------------------------------------|--8---------------------------------|
D|--7------------------------------------|--9--9-----10-----7-----9-----------|
A|-------9-----10-----7------------------|--9---------------------------9-----|
E|--------------------------10-----8-----|--7---------------------------------|
 
e|--7---------------------------------|--7---------------------------------|
B|--7----0-0----0-0---0-0---0-0---0-0-|--7----0-0---0-0---0-0----0-0---0-0-|
G|--8---------------------------------|--8---------------------------7-----|
D|--9--9-----10-----7-----9-----------|--9--------7-----9-----10-----------|
A|--9---------------------------9-----|--9--9------------------------------|
E|--7---------------------------------|--7---------------------------------|
 
e|---------------------------------------|--7---------------------------------|
B|---0-0----0-0---0-0---0-0----0-0---0-0-|--7----0-0----0-0---0-0---0-0---0-0-|
G|---------------------------------------|--8---------------------------------|
D|--9----10-----7-----9------------------|--9--9-----10-----7-----9-----------|
A|--------------------------10-----9-----|--9---------------------------9-----|
E|---------------------------------------|--7---------------------------------|
 
e|--7---------------------------------|--7----------------------------------|
B|--7----0-0----0-0---0-0---0-0---0-0-|--7----0-0---0-0---0-0----0-0----0-0-|
G|--8---------------------------------|--8----------------------------------|
D|--9--9-----10-----7-----9-----------|--9--------7-----9-----10-----12-----|
A|--9---------------------------9-----|--9--9-------------------------------|
E|--7---------------------------------|--7----------------------------------|
                                                                                
e|-------------------------------------|--12----------------------------------|
B|-0-0----0-0---0-0---0-0----0-0---0-0-|--0-----0-0----0-0---0-0---0-0----0-0-|
G|-------------------------------------|--0-----------------------------------|
D|--9--10-----7-----9------------9-----|------9-----10-----7-----9------------|
A|------------------------10-----------|-------------------------------10-----|
E|-------------------------------------|--0-----------------------------------|
 
e|--12---------------------------------|--12----------------------------------|
B|--0----0-0----0-0---0-0---0-0----0-0-|--0-----0-0----0-0---0-0---0-0----0-0-|
G|--0----------------------------------|--0-----------------------------------|
D|-----9-----10-----7-----9------------|------9-----10-----7-----9------------|
A|------------------------------10-----|-------------------------------10-----|
E|--0----------------------------------|--0-----------------------------------|
 
e|---------------------------------------|
B|----0-0---0-0---0-0---0-0---0-0----0-0-|
G|---------------------------------------|
D|--7-----------5-----7------------------|
A|--------9-----------------9-----10-----|
E|---------------------------------------|
 
e|--12-------8------8-----8------8------8-|
B|--8-------------------------------------|
G|--9------9------9-----9------9------9---|
D|--8---10-----12-----9-----10------------|
A|--10-----------------------------10-----|
E|--8-------------------------------------|
 
e|--12-------8------8-----8------8------8-|
B|--8-------------------------------------|
G|--9------9------9-----9------9------9---|
D|--8---10-----12-----9-----10------------|
A|--10-----------------------------10-----|
E|--8-------------------------------------|
                                         
e|--12-------8------8-----8------8------8-|
B|--8-------------------------------------|
G|--9------9------9-----9------9------9---|
D|--8---10-----12-----9-----10------------|
A|--10-----------------------------10-----|
E|--8-------------------------------------|
 
e|------8-----8------8-----8-----8-----8-|--7------7------7-----7-----7-----7-|
B|----7-----7------7-----7-----7-----7---|--7---------------------------------|
G|---------------------------------------|--8----8------8-----8-----8-----8---|
D|--7------------------7-----------------|--9--9-----10-----8-----9-----------|
A|--------9-----10-----------7-----9-----|--9---------------------------9-----|
E|---------------------------------------|--7---------------------------------|
 
e|--8-------8------8-----8------8------8-|--7------7------7-----7-----7-----7-|
B|--8------------------------------------|--7---------------------------------|
G|--9-----9------9-----9------9------9---|--8----8------8-----8-----8-----8---|
D|--8--10-----12-----9-----10------------|--9--9-----10-----8-----9-----------|
A|10-----|--9---------------------------9-----|
E|--8------------------------------------|--7---------------------------------|
 
e|--8------8------8-----8------8------8-|--7------7------7-----7-----7------7-|
B|--8-----------------------------------|--7----0------0-----0-----0------0---|
G|--9----9------9-----9------9------9---|--8----------------------------------|
D|--8-10-----12-----9-----10------------|--9--9-----10-----7-----9------------|
A|--10---------------------------10-----|--9---------------------------10-----|
E|--8-----------------------------------|--7----------------------------------|
 
e|------7-----7------7-----7-----7------7-|
B|----0-----0------0-----0-----0------0---|
G|----------------------------------------|
D|--7------------------7------------------|
A|--------9-----10-----------9-----10-----|
E|----------------------------------------|
                                         
e|------7-----7------7-----7-----7------7-|
B|----0-----0------0-----0-----0------0---|
G|----------------------------------------|
D|--7------------------7------------------|
A|--------9-----10-----------9-----10-----|
E|----------------------------------------|
 
e|------7-----7------7-----7------7-----7-|----------------------------|
B|----0-----0------0-----0------0-----0---|----0---0----0---0---0----0-|
G|----------------------------------------|----------------------------|
D|--7-------------------------------------|------9---10---7---9--------|
A|--------9-----10-----7------------------|-----------------------10---|
E|---------------------------10-----8-----|--7-------------------------|
 
e|----------------------------|----------------------------|
B|----0---0----0---0---0----0-|----0---0----0---0---0----0-|
G|----------------------------|----------------------------|
D|--7------------7------------|---------------7------------|
A|------9---10-------9---10---|--7---9---10-------9---10---|
E|----------------------------|----------------------------|
 
e|----------------------------|---------------------------------------|
B|----0---0----0---0----0---0-|------7-----7-----7------7-----7-----7-|
G|----------------------------|----8-----8-----8------8-----8-----8---|
D|----------------------------|--------------9-----10-----8-----9-----|
A|--7---9---10---7------------|--------9------------------------------|
E|-------------------10---8---|--7------------------------------------|
 
e|------0------0------0-----0-----0------0-|
B|----8------8------8-----8-----8------8---|
G|----------------------7------------------|
D|---------------10-----------9-----10-----|
A|--------10-------------------------------|
E|--7--------------------------------------|
 
e|---------------------------------------|
B|------7-----7-----7------7-----7-----7-|
G|----8-----8-----8------8-----8-----8---|
D|--------------9-----10-----8-----9-----|
A|--------9------------------------------|
E|--7------------------------------------|
 
e|------0------0------0-----0-----0------0-|
B|----8------8------8-----8-----8------8---|
G|----------------------7------------------|
D|---------------10-----------9-----10-----|
A|--------10-------------------------------|
E|--7--------------------------------------|
 
e|----------------------------------------|
B|------7-----7-----7------7-----7------7-|
G|----8-----8-----8------8-----8------8---|
D|--------------9-----10-----8-----10-----|
A|--------9-------------------------------|
E|--7-------------------------------------|
 
e|----------------------------------------|--------------------|
B|------7------7-----7------7-----7-----7-|-----------------7--|
G|----8------8-----8------8-----8-----8---|--------------8-----|
D|--9-----10-----8-----10-----9-----------|-----------9--------|
A|----------------------------------9-----|-----6--9-----------|
E|----------------------------------------|--7-----------------|
 
e|------------------11--14--|--19------------|---------------|-------|
B|--12----------12----------|----------------|--0------------|--0----|
G|----------11--------------|----------------|---------------|-------|
D|------13------------------|----------------|--4------------|-------|
A|--------------------------|----------------|--6------------|-------|
E|--------------------------|----------------|--7------------|-------|
 
e|--0-------------|---------------|----------------|---------------|
B|--1-------------|--0------------|--1-------------|--0------------|
G|--0--------2----|--0------------|----------------|--0------------|
D|--2-------------|--0------------|--2--------4----|---------------|
A|--3-------------|---------------|--0-------------|---------------|
E|----------------|--3------------|----------------|--0------------|
 
e|--1-------------|--1--------0----|--0------------|-----------------|
B|--1--------2----|--1-------------|--1------------|--4----0---------|
G|--2--------3----|--2-------------|--2------------|-------0----2----|
D|----------------|----------------|---------------|------------4----|
A|----------------|----------------|--2------------|-----------------|
E|----------------|----------------|---------------|-----------------|
 
e|----------------------------|----------------------------|
B|----0---0----0---0---0----0-|----0---0----0---0---0----0-|
G|----------------------------|----------------------------|
D|------9---10---7---9--------|------9---10---7---9--------|
A|--7--------------------10---|--7--------------------10---|
E|----------------------------|----------------------------|
 
e|-----------------------------------|--------------------------------------|
B|-----------------------------------|--------------------------------------|
G|---------0-----0-----0-----0-----0-|------0-----0-----0-----0-----0-----0-|
D|--2----2-----2-----2-----2-----2---|----2-----2-----2-----2-----2-----2---|
A|-----3-----1-----3-----1-----3-----|--1-----3-----1-----3-----1-----3-----|
E|-----------------------------------|--------------------------------------|
 
e|--0------------|--0------------|--------------||
B|--0------------|---------------|--------------||
G|--0------------|---------------|--------------||
D|---------------|--2------------|--------------||
A|---------------|---------------|--------------||
E|--0------------|--0------------|--------------||


************************************

| h  Hammer-on
| p  Pull-off
| /  Slide up

************************************
Suggest correction
What's this?
You can suggest a correction to this tab. Community and Mods will review your correction and vote to approve or reject it.
comments
print report bad tab
3 comments total.
0 reply
Fluffy Towel 12 wrote on May 14 2006, 04:46 pm

Nice! A great tab for a great song, thanks!

0 reply
zippax 144 wrote on May 27 2010, 12:39 pm

A fantastic and accurate transcription, good for cross referencing with Goran Stefanovic's version to cover the piece fully. Thank you.

0 reply
JulianN 10 wrote on June 29 2016, 02:52 am

Missing notes, often incorrect hand postures, a lot of mistakes in the mid section of the body of the tab (around the strum-pick part, from the 17th line of tabs onward)

guest
You may want to rate the tab now too:
select rating
Please do not post tabs as comments. Select "correction" instead!