Oops, an error
Loading. Please wait.

The Wizard Of Us tab

616 views 9 this week
no commentswrite comment
1 2 3 4 5
1 last vote to show rating
add to favorites
×
Save as Personal and add changes to this tab that will be seen only by you. Learn more ›
×
You can save this tab as Personal to edit and correct it or add notes. All changes will be seen only by you. Learn more »
launch autoscroll
font size
0
reset
how to read this tab
guitar tuner
edit
Autoscroll
slow
fast
+/-
esc
set tempo
stop
Tempo: 6/8 (Rhythm is annotated at the top).
Order of the song:
   Intro
   Verse 1
   Pre-chorus
   Chorus 1
   Interlude
   Verse 2
   Pre-chorus
   Chorus 2/Bridge
   Chorus 3
   Outro


[Chords Used]

    Am   F   C   G   Dm   
e|--0----1---0---3---1--|
B|--1----1---1---0---3--|
G|--2----2---0---0---2--|
D|--2----3---2---0---0--|
A|--0----3---3---2------|
E|-------1-------3------|


[Intro]

    Am                       F                        C                        G
    1 + 2 + 3 + 4 + 5 + 6 +  1 + 2 + 3 + 4 + 5 + 6 +  1 + 2 + 3 + 4 + 5 + 6 +  1 + 2 + 3 + 4 + 5 + 6 +  
e|--0----------------------|------------------------|-0----------------------|-------------3------------|
B|--------------1----------|-1-----------1----------|-------------1----------|-0------------------------|
G|--------0-----------0----|-------0-----------0----|-------0-----------0----|-------0-----------0------|
D|-------------------------|------------------------|------------------------|--------------------------|
A|-------------------------|------------------------|------------------------|--------------------------|
E|-------------------------|------------------------|------------------------|--------------------------|

    Am                       F                        C                        G
    1 + 2 + 3 + 4 + 5 + 6 +  1 + 2 + 3 + 4 + 5 + 6 +  1 + 2 + 3 + 4 + 5 + 6 +  1 + 2 + 3 + 4 + 5 + 6 +  
e|-------------------------|------------------------|-0-----------3----------|--------------------------|
B|--1h3---------0h1--------|-1-----------1----------|------------------------|-0-----------0h1----------|
G|--------0-----------0----|-------0-----------0----|-------0-----------0----|-------0-----------0------|
D|-------------------------|------------------------|------------------------|--------------------------|
A|-------------------------|------------------------|------------------------|--------------------------|
E|-------------------------|------------------------|------------------------|--------------------------|


[Verse 1/Verse 2]

    Am          G            F                        C                        G
    1 + 2 + 3 + 4 + 5 + 6 +  1 + 2 + 3 + 4 + 5 + 6 +  1 + 2 + 3 + 4 + 5 + 6 +  1 + 2 + 3 + 4 + 5 + 6 + 
e|--0----------------------|------------------------|------------------------|--------------------------|
B|--------------0----------|-------1-----------1----|-1-----------1----------|-0-----------0------------|
G|--------2-----------0----|-2-----------2----------|-------0-----------0----|-------0-----------0------|
D|------2-----0-----0-----0|-----3-----3-----3-----0|-----2-----2-----2-----0|-----0-----0-----0-----0--|
A|--0-------0-----------0--|---------3-----------0--|-3-------3---3-------0--|---------2-----------0----|
E|--------------3----------|-1-----------1----------|------------------------|-3-----------3------------|

    Am          G            F                        C                        G
    1 + 2 + 3 + 4 + 5 + 6 +  1 + 2 + 3 + 4 + 5 + 6 +  1 + 2 + 3 + 4 + 5 + 6 +  1 + 2 + 3 + 4 + 5 + 6 + 
e|-------------------------|------------------------|-0----------------------|--------------------------|
B|--1-----------0----------|-------1-----------1----|-------------1----------|-0-----------0------------|
G|--------2-----------0----|-2-----------2----------|-------0-----------0----|-------0-----------0------|
D|------2-----0-----0-----0|-----3-----3-----3-----0|-----2-----2-----2-----0|-----0-----0-----0-----0--|
A|--0-------0-----------0--|---------3-----------0--|-3-------3---3-------0--|---------2-----------0----|
E|--------------3----------|-1-----------1----------|------------------------|-3-----------3------------|


[Pre-chorus]

    Am                       F                        Am                       F
    1 + 2 + 3 + 4 + 5 + 6 +  1 + 2 + 3 + 4 + 5 + 6 +  1 + 2 + 3 + 4 + 5 + 6 +  1 + 2 + 3 + 4 + 5 + 6 + 
e|-------------------------|------------------------|------------------------|--------------------------|
B|--1-----------0h1--------|-1-----------1----------|-1-----------0h1--------|-1~-----------------------|
G|--------2-----------2----|-------2-----------2----|-------2-----------2----|--------------------------|
D|------2-----2-----2-----0|-----3-----3-----3-----0|-----2-----2-----2-----0|--------------------------|
A|--0-------0---0-------0--|---------3-----------0--|-0-------0---0-------0--|--------------------------|
E|-------------------------|-1-----------1----------|------------------------|-1~-----------------------|


[Chorus 1]

    Am                       F                        Am          G            F
    1 + 2 + 3 + 4 + 5 + 6 +  1 + 2 + 3 + 4 + 5 + 6 +  1 + 2 + 3 + 4 + 5 + 6 +  1 + 2 + 3 + 4 + 5 + 6 + 
e|--0~---------------------|------------------------|------------------------|--------------------------|
B|--1~--------------1---1--|-1~---------------------|-1-----------0----------|-1~-----------------------|
G|------------------2---0--|-2~---------------------|---------0-----------0--|--------------------------|
D|-------------------------|------------------------|-----2-----------0------|--------------------------|
A|--0~---------------------|------------------------|-0----------------------|--------------------------|
E|-------------------------|-1~---------------------|-------------3----------|-1~-----------------------|

    Am                       F                        Am          G            F
    1 + 2 + 3 + 4 + 5 + 6 +  1 + 2 + 3 + 4 + 5 + 6 +  1 + 2 + 3 + 4 + 5 + 6 +  1 + 2 + 3 + 4 + 5 + 6 + 
e|--0~---------------------|------------------------|------------------------|--------------------------|
B|--1~---------------------|-1~---------------------|-1-----------0----------|-1~-----------------------|
G|-------------------------|-2~---------------------|-------2-----------0----|--------------------------|
D|-------------------------|------------------------|-----2-----0-----0-----0|--------------------------|
A|--0~---------------------|------------------------|-0-------0-----------0--|--------------------------|
E|-------------------------|-1~---------------------|-------------3----------|-1~-----------------------|


[Interlude]

    Am                       F                        C                        G
    1 + 2 + 3 + 4 + 5 + 6 +  1 + 2 + 3 + 4 + 5 + 6 +  1 + 2 + 3 + 4 + 5 + 6 +  1 + 2 + 3 + 4 + 5 + 6 + 
e|--0----------------------|------------------------|-0----------------------|-------------3------------|
B|--------------1----------|-1-----------1----------|-------------1----------|-0------------------------|
G|--------2-----------2----|-------2-----------2----|-------0-----------0----|-------0-----------0------|
D|------2-----2-----2-----0|-----3-----3-----3-----0|-----2-----2-----2-----0|-----0-----0-----0-----0--|
A|--0-------0---0-------0--|---------3-----------0--|-3-------3---3-------0--|---------2-----------0----|
E|-------------------------|-1-----------1----------|------------------------|-3-----------3------------|


[Chorus 2/Bridge]

Am              F            Am   G   F
How long is the mile and the distance?
    Am             F
And how can we get close?
             Am          G         F
I'll ask the wizard, the wizard of us.
Dm      Am       G
Tearing down the walls.
Dm  Am  G
a-a-a-a-a-a


[Chorus 3]

    Am                       F                        Am                       F
    1 + 2 + 3 + 4 + 5 + 6 +  1 + 2 + 3 + 4 + 5 + 6 +  1 + 2 + 3 + 4 + 5 + 6 +  1 + 2 + 3 + 4 + 5 + 6 + 
e|-------------------------|------------------------|------------------------|--------------------------|
B|--1-----------1----------|-------1-----------1----|-1-----------0----------|-------1-----------1------|
G|--------2-----------2----|-2-----------2----------|-------2-----------0----|-2-----------2------------|
D|------2-----2-----2-----0|-----3-----3-----3-----0|-----2-----0-----0-----0|-----3-----3-----3-----0--|
A|--0-------0---0-------0--|---------3-----------0--|-0-------0-----------0--|---------3-----------0----|
E|-------------------------|-1-----------1----------|-------------3----------|-1-----------1------------|
   "How         long is the  mile           and the   distance?"

    Am                       F                        Am                       F
    1 + 2 + 3 + 4 + 5 + 6 +  1 + 2 + 3 + 4 + 5 + 6 +  1 + 2 + 3 + 4 + 5 + 6 +  1 + 2 + 3 + 4 + 5 + 6 + 
e|-------------------------|------------------------|-0----------------------|--------------------------|
B|--1-----------1----------|-------1-----------1----|-------------0----------|-1-----------1------------|
G|--------2-----------2----|-2-----------2----------|-------2-----------0----|-------2-----------2------|
D|------2-----2-----2-----0|-----3-----3-----3-----0|-----2-----0-----0-----0|-----3-----3-----3-----0--|
A|--0-------0---0-------0--|---------3-----------0--|-0-------0-----------0--|---------3-----------0----|
E|-------------------------|-1-----------1----------|-------------3----------|-1-----------1------------|
   "How         can we get   close?      I'll ask the wizard, the wizard of    us"

              Am  F
The wizard of us,
              Am  G  F
The wizard of us.
    Am              F
And now, we can get close
             Am          G         F
I kissed the wizard, the wizard of us.


[Outro]

    Am          G            F
    1 + 2 + 3 + 4 + 5 + 6 +  1 + 2 + 3 + 4 + 5 + 6 + 
e|-------------------------|--------------------------|
B|--1-----------0----------|-1~-----------------------|
G|--------2-----------0----|--------------------------|
D|------2-----0-----0-----0|--------------------------|
A|--0-------0-----------0--|--------------------------|
E|--------------3----------|-1~-----------------------|
   "Life,   bring me back to life."


Note: in the original song, only the piano is played during the outro. The part for the outro seen above
is what I like to play for this song.

************************************

| +   Upbeat (in rhythm)
| h   Hammer-on
| ~   Let it ring

************************************

            
            
Suggest correction
Creating personal tab
Creating personal tab
You can edit any tab online and save it as your Personal.

You can edit, replace or remove any tab part or add personal notes – all changes will be seen only by you.

Personal tabs can be accessed anytime from any device, even offline.
Learn more »
Give kudos to tab author, rate the tab!
1 2 3 4 5
comments
print report bad tab
guest
You may want to rate the tab now too:
select rating
Wanna post a correction for this tab? Suggest correction