Oops, an error
Loading. Please wait.

Por Tu Amor tab

by ISIS
338 views 1 this week
no commentswrite comment
1 2 3 4 5
3 more votes to show rating
add to favorites
×
Save as Personal and add changes to this tab that will be seen only by you. Learn more ›
×
You can save this tab as Personal to edit and correct it or add notes. All changes will be seen only by you. Learn more »
launch autoscroll
font size
0
reset
how to read this tab
guitar tuner
edit
Autoscroll
slow
fast
+/-
esc
set tempo
stop
INTRO                                             aqui empieza
                                                            E5
e-------------------------------------------------------------
B-------------------------------------------------------------
G-------------------------------------------------------------
D--6-7-6-4---------4-6--4-7--2-4--2-----------4-6--6-7-6-6-4-2-
A----------4--4-6-7-----------------6-4--4-6-7---------------2-
E------------------------------------------------------------0-

 E5                      B5
   POR TU AMOR ESTOY LLORANDO...
   C#m5                 G#5
   POR TU AMOR NO VIVO HOY
   E5                    B5
   A MIS AMIGOS LES PREGUNTO
   C#m5              G#5
   QUE FUE LO QUE PASO...

            A5
   POR TU AMOR
      B5      C#m5
   MIRAME ESCUCHAME
   C#m5-B5- A5
   POR TU AMOR
      B5         G#5
   QUIEREME NO SEAS CRUEL..

   E5            B5
   LAS OCHO VAN A SONAR
  C#m5                 G#5
   A MI MENTE VUELVES A LLEGAR
   E5                   B5
   ESTOY CANSADA DE ESTA SITUACION
   C#m5                   G#5
   DE NOCHES LARGAS Y DESOLACION

            A5
   POR TU AMOR
      B5      C#m5
   MIRAME ESCUCHAME
   C#m5-B5- A5
    POR TU AMOR
        B       G#
   QUIEREME NO SEAS CRUEL...

solo

 E5           B5   C#5                G#5
e-------------------7-5-4-5-4---4--------------
B----------------6~------7---7-5-7-5-4-5-4-5/7~-
G-------------7~8----------------------------
D------7-9-10---------------------------------
A--7-10---------------------------------------
E---------------------------------------------


e-------------------7-5-4-5-4---4-----------
B----------------6~------7---7-5-7-5-4-5/7~--
G-------------7-8--------------------------
D------7-9-10------------------------------
A--7-10------------------------------------
E------------------------------------------

      A5
e--11-8/4/8-11--------  TAPPING 4 VECES
B---------------------

       B5
e--13-10/6/10-13--------  TAPPING 4 VECES
B---------------------

       C#5
e--15-12/8/12-15--------  TAPPING 4 VECES
B---------------------

       C#5
e--17-12/8/12-15-12/8/12-------  TAPPING 2 VECES
B---------------------

         A5
e--17-12/8/12-17--------  TAPPING 4 VECES
B---------------------

         B5
e--19-14/10/14-19--------  TAPPING 4 VECES
B---------------------

         G#5                                                G#5
e--21-20-19-20-21-20-19-20-21-20-19-20-21-20-19-20-21-20-19-23~
B--------------------------------------------------------------


   E5                     B5
   MIENTRAS YO ESTOY LLORANDO
   C#m5      G#5
   TU ERES FELIZ
   E5                B5
   ME LA PASO SUPLICANDO
   C#m5            G#5
   NI TE ACUERDAS DE MI

            A5
   POR TU AMOR
    B5        C#m5
   MIRAME ESCUCHAME
   C#m5-B5- A5
   POR TU AMOR
      B5         G#5
   QUIEREME NO SEAS CRUEL...

 E5                      B5
   POR TU AMOR ESTOY LLORANDO...
   C#m5                 G#5
   POR TU AMOR NO VIVO HOY
   E5                    B5
   A MIS AMIGOS LES PREGUNTO
   C#m5              G#5
   QUE FUE LO QUE PASO...

 E5                      B5
   POR TU AMOR ESTOY LLORANDO...
   C#m5                 G#5
   POR TU AMOR NO VIVO HOY
   E5                    B5
   A MIS AMIGOS LES PREGUNTO
   C#m5              G#5
   QUE FUE LO QUE PASO...

esta es a parte donde toka la guitarra, se toka con los
mismos acordes del solo principal.

    E5             B5                      C#5                       G#5
A--4/6--6/7--7/9--9/14-14/12-12/11-11/9-12-12/11-11/9-9/7-11/9-9/7-7/6-6

4 VECES...

y se toka de nuevo la segunda parte del solo
      A5
e--11-8/4/8-11--------  TAPPING 4 VECES
B---------------------

       B5
e--13-10/6/10-13--------  TAPPING 4 VECES
B---------------------

       C#5
e--15-12/8/12-15--------  TAPPING 4 VECES
B---------------------

       C#5
e--17-12/8/12-15-12/8/12-------  TAPPING 2 VECES
B---------------------

         A5
e--17-12/8/12-17--------  TAPPING 4 VECES
B---------------------

         B5
e--19-14/10/14-19--------  TAPPING 4 VECES
B---------------------

         G#5                                                G#5
e--21-20-19-20-21-20-19-20-21-20-19-20-21-20-19-20-21-20-19-23~
B--------------------------------------------------------------

             4 veces lento 4 veces rapido. y final

D---------4-6--4-7-2-4--4-7-2-4-4-7-2-4------2--  C#5
A-4--4-6-7------------------------------------6-4-3-4


gracias... cualquier error, duda.. cometario, mentada.
. gracias.. espero le entiendan.. saludos a la banda..
nos vemos..
Suggest correction
Creating personal tab
Creating personal tab
You can edit any tab online and save it as your Personal.

You can edit, replace or remove any tab part or add personal notes – all changes will be seen only by you.

Personal tabs can be accessed anytime from any device, even offline.
Learn more »
Give kudos to tab author, rate the tab!
1 2 3 4 5
comments
print report bad tab
guest
Wanna post a correction for this tab? Suggest correction