Oops, an error
Loading. Please wait.

Salmo 121 tab

72 views 1 this week
no commentswrite comment
1 2 3 4 5
3 more votes to show rating
add to favorites
×
Save as Personal and add changes to this tab that will be seen only by you. Learn more ›
×
You can save this tab as Personal to edit and correct it or add notes. All changes will be seen only by you. Learn more »
launch autoscroll
font size
0
reset
how to read this tab
guitar tuner
edit
Autoscroll
slow
fast
+/-
esc
set tempo
stop
INTRO:
      AQUI ENTRA LA GUITARRA Y ESTOS SON
      ACORDES DEL ACOMPAÑAMIENTO:
      D G A D G A F#m Bm Em A D

6---------------------------------------------------
5---------------------------------------------------
4---------------------------------------------------
3-----------------9-7-------9-----------------------
2---7-7-7-7-7s8-7-----7s8-7---7--------------10-----
1-------------------------------10-10-10-9-7----7-7-

6-------------------------------------
5-------------------------------------
4-------------------------------------
3-------------------------------------
2---10-8-7--------------10-----10-8-7-
1----------10-10-10-9-7----7-7--------

6---------------------------------------------------
5---------------------------------------------------
4---------------------------------------------------
3----------------------9-------9-7---------9-7----7-
2---7-7-7-7s8-8--7-8-7---7-8-7-----7-7s8-7--------7-
1-------------------------------------------------5-

                            D     G                 A
ALZARE  MIS  OJOS  A  LOS  MONTES  ¿DE  DONDE  VENDRA

       D      G                A            F#m Bm
MI  SOCORRO?,   MI  SOCORRO  VIENE  DE  JEHOVA--A  QUE

Em          A             D      G                A
HIZO  LOS CIELOS  Y  LA  TIERRA,   MI  SOCORRO  VIENE

        F#m  Bm      Em            A              D    Dsus D
DE  JEHOVA      QUE  HIZO  LOS   CIELOS  Y  LA  TIERRA.

                           D         G              A
JEHOVA  TE  GUARDARA  DE  TODO  MAL,   TU  MANO  DERECHA

         D  G                A        F#m  Bm
ES  JEHOVA,   JEHOVA  GUARDARA  TU  SALIDA    Y  TU

    Em            A               D      G
ENTRADA  DESDE  AHORA  Y  PARA  SIEMPRE,   JEHOVA

       A         F#m            Bm   Em
GUARDARA  TU  SALIDA  Y  TU  ENTRADA    DESDE  AHORA  Y

        D      Dsus D
PARA  SIEMPRE.

INTER:
      AQUI ENTRA LA GUITARRA COMO EL INTRO
      Y LOS ACORDES SON LOS MISMOS.

                               D   G               A
NO  DARA  TU  PIE  AL  RESBALADERO   NI  SE  DORMIRA

              D     G                A          F#m  Bm
EL  QUE  TE  GUARDA   JEHOVA  GUARDARA  TU  SALIDA

        Em              A               D      G
DESDE  AHORA,  DESDE  AHORA  Y  PARA  SIEMPRE,

               A          F#m Bm           Em
JEHOVA  GUARDARA  TU  SALIDA     Y  TU  ENTRADA  DESDE

  A               D      Dsus D
AHORA  Y  PARA  SIEMPRE.


MUY BUEN CANTO PARA FORTALECER,ESPERO
SEA DE BENDICION COMO LA ES CONMIGO.
DIOS TE BENDIGA...
ESCRIBEME:soyunmilagro1978@

            
            
Suggest correction
Creating personal tab
Creating personal tab
You can edit any tab online and save it as your Personal.

You can edit, replace or remove any tab part or add personal notes – all changes will be seen only by you.

Personal tabs can be accessed anytime from any device, even offline.
Learn more »
Give kudos to tab author, rate the tab!
1 2 3 4 5
comments
print report bad tab
guest
Wanna post a correction for this tab? Suggest correction