Oops, an error
Loading. Please wait.

Salmo 51 tab

45 views 3 this week
no commentswrite comment
1 2 3 4 5
3 more votes to show rating
add to favorites
×
Save as Personal and add changes to this tab that will be seen only by you. Learn more ›
×
You can save this tab as Personal to edit and correct it or add notes. All changes will be seen only by you. Learn more »
launch autoscroll
font size
0
reset
how to read this tab
guitar tuner
edit
Autoscroll
slow
fast
+/-
esc
set tempo
stop
INTRO: AQUI ENTRA LA GUITARRA ARPEGUIANDO
       USANDO EL ACORDE Dm CON CEJILLA.


6------------------------------
5------------------------------
4---7-------7-------7------7---
3-----7---7---7---7---7----7---
2-------6-------6-------6--6---
1--------------------------5---


 Dm                       Gm       C
TEN  PIEDAD  DE  MI  OH  DIOS  CONFORME  A  TU

       F          A#
MISERICORDIA, CONFORME  A  LA  MULTITUD  DE  TUS

    Gm     A               Dm
PIEDADES  BORRA  MIS  REBELIONES.

      Dm                           Gm         C
QUE  PUEDA  YO  SENTIR  UNA  VEZ  MAS  EL  PODER

                   F        A#
DE  TU  ESPIRITU  SANTO, JESUS  FORTALECE  MI

 Gm             A                   Dm     D7
VIDA  PARA  SEGUIR  FIEL  EN  TU  CAMINO.

           Gm                C              F
 / Y  SEGUIRE  HASTA  EL  FINAL  Y  MI  CARRERA

      A#          Gm  A                   Dm  D7
TERMINAR  Y  SEGUIRE--E  SIN  NUNCA  DESMAYAR.  /


INTER: AQUI ENTRA LA GUITARRA Y ESTOS SON
       LOS ACORDES DEL ACOMPAÑAMIENTO:
       Gm C F A# Gm A Dm D7

6-------------------------------------------
5-------------------------------------------
4-------------------------------------------
3---7-9-9-9---9-9-9s10---9-9-10-9-10--------
2------------------------------------8-8s10-
1-------------------------------------------

6------------------------------------------
5------------------------------------------
4------------------------------------------
3-----10-9-9s10-9-7---7-9-10-9-10-10-10s12-
2---8--------------------------------------
1------------------------------------------

6--------------------------------------
5--------------------------------------
4--------------------------------------
3---10---10---10-9---9-10-10s12-10-9-7-
2------8----8--------------------------
1--------------------------------------

6-------------------
5-------------------
4-------------------
3-------------------
2---6-6s7---6-6s7---
1-------------------

           Gm                C
 / Y  SEGUIRE  HASTA  EL  FINAL......

         Gm           C              F            A#
LA RA LA LA    LA RA RA    LA RA LA LA   LA RA LA RA

         Gm
LA RA LA LA......


NOTA: EN EL INTER SE USA UN DISTORCIONADOR
      PARA EL REQUINTO CON LA GUITARRA.


ESPERO QUE LES SEA DE BENDICION COMO LA HA SIDO
CONMIGO.
DIOS TE BENDIGA Y TE GUARDE TODOS LOS DIAS DE TU
VIDA.
ESCRIBEME:soyunmilagro1978@

            
            
Suggest correction
Creating personal tab
Creating personal tab
You can edit any tab online and save it as your Personal.

You can edit, replace or remove any tab part or add personal notes – all changes will be seen only by you.

Personal tabs can be accessed anytime from any device, even offline.
Learn more »
Give kudos to tab author, rate the tab!
1 2 3 4 5
comments
print report bad tab
guest
Wanna post a correction for this tab? Suggest correction