Oops, an error
Loading. Please wait.

Barkada Ko tab

version 4
version 4

Whole song

545 views 1 this week
no commentswrite comment
1 2 3 4 5
3 more votes to show rating
add to favorites
×
Save as Personal and add changes to this tab that will be seen only by you. Learn more ›
×
You can save this tab as Personal to edit and correct it or add notes. All changes will be seen only by you. Learn more »
launch autoscroll
font size
0
reset
how to read this tab
guitar tuner
edit
Autoscroll
slow
fast
+/-
esc
set tempo
stop
Author
Unregistered
Artist/Band:Isla Era
Song:Barkada Ko

Intro:
e|------------5----------10--7--5----------5--5--|
B|------5--7-----7--5--------------7--7h8--------|
G|---7-----------------7-------------------------| 
D|---0--0--0--0--0--0--0-0---0--0--0--0-0--0--0--|\  
A|-----------------------------------------------| \ 
E|-----------------------------------------------|  \
                                                     (Repeat 3x)
e|------------5----------------------------------|  /     
B|------5--7-----7--5-----7h8--7--5-----5--------| /     
G|---7-----------------7-------------7-----7--7--|/   
D|---0--0--0--0--0--0--0--0----0--0--0--0--0--0--|   
A|-----------------------------------------------|   
E|-----------------------------------------------| 
then;
e|---5h7-7---------------------------------------|
B|---5h7-7-----5-5h7-7---------------------------|
G|---5h7-7-----5-5h7-7---------------------------|
D|-------------5-5h7-7---------------------------|
A|---------5h7-----------------------------------|
E|-----------------------------------------------|

Verse 1:
    D    Bm   G    A
e|--5-5--2-2--3-3--5-5-|
B|--7-7--3-3--3-3--5-5-|
G|--7-7--4-4--4-4--6-6-|(repeat 4x)
D|---------------------|
A|---------------------|
E|---------------------|
Ikaw, ako, tayo ang nagbuo
Samahan natin walang tatalo
Ako matalino, ikaw bobo (joke lang)
Pag-iisip naman ay buong-buo

Interlude:
e|------------5----------10--7--5----------5--5--|
B|------5--7-----7--5--------------7--7h8--------|
G|---7-----------------7-------------------------| 
D|---0--0--0--0--0--0--0-0---0--0--0--0-0--0--0--|  
A|-----------------------------------------------|   
E|-----------------------------------------------|     
                                                 
e|------------5----------------------------------|      
B|------5--7-----7--5-----7h8--7--5-----5--------|     
G|---7-----------------7-------------7-----7--7--|   
D|---0--0--0--0--0--0--0--0----0--0--0--0--0--0--|   
A|-----------------------------------------------|   
E|-----------------------------------------------| 

Verse 2:(same as verse 1)
Pabili nga ng sigarilyo
Isang stick ayos na ito
Paabot na rin ng posporo
Pag-sindi pre’ fifty tayo

Chorus :
    G     A     D     Bm
e|----3-----5-----5-----2----|
B|----3-3---5-5---7-7---3-3--|
G|----4-----6-----7-----4----|(repeat 3x)
D|---------------------------|
A|-------------(5)---(2)-----|
E|-(3)---(5)-----------------|
Then;
    G           A
e|----3-----3-----5-----5----|
B|----3-3---3-3---5-5---5-5--|
G|----4-----4-----6-----5----|
D|---------------------------|
A|---------------------------|
E|-(3)---(3)---(5)---(5)-----|
Kaming lahat ay hindi patatalo
Sasabay kahit anong uso
Magkasama saan man patungo
Ok talaga ang barkada ko

Interlude:(Repeat intro)

Verse 3:(same as verse 1)
Kumusta na pare ko
Gigimik na naman ba tayo
Gusto kong akyatin ang mt. apo
Tara na excited na ako

(Repeat chorus)

Bridge:
    Bm       F#m      G        A
e---2-2-2-2--2-2-2-2--3-3-3-3--5-5-5-5-|
B---3-3-3-3--2-2-2-2--3-3-3-3--5-5-5-5-|
G---4-4-4-4--2-2-2-2--4-4-4-4--6-6-6-6-|(repeat 2x)
D--------------------------------------|
A--------------------------------------|
E--------------------------------------|
Kung may problema ka
Nandito ang barkada
Huwag kang mangangamba
‘di ka nag-iisa

(Repeat chorus 2x)

Intro:
e|------------5----------10--7--5----------5--5--|
B|------5--7-----7--5--------------7--7h8--------|
G|---7-----------------7-------------------------| 
D|---0--0--0--0--0--0--0-0---0--0--0--0-0--0--0--|  
A|-----------------------------------------------|   
E|-----------------------------------------------|     
                                                 
e|------------5----------------------------------|      
B|------5--7-----7--5-----7h8--7--5-----5--------|     
G|---7-----------------7-------------7-----7--7--|   
D|---0--0--0--0--0--0--0--0----0--0--0--0--0--0--|   
A|-----------------------------------------------|   
E|-----------------------------------------------| 
Repeat 2x

Outro:
E|---5h7-7--------------5------------------|
B|---5h7-7-----5-5h7-7--7------------------|
G|---5h7-7-----5-5h7-7--7------------------|
D|-------------5-5h7-7--7------------------|
A|---------5h7----------5------------------|  
E|-----------------------------------------|

Hello guys! Im not sure about this tabs. Actualy Some part of this tabs was 
originaly submitted by someone else in ultimateguitar.com. I made another but I 
changed and added the part that I think it is correct.

            
            
Suggest correction
Creating personal tab
Creating personal tab
You can edit any tab online and save it as your Personal.

You can edit, replace or remove any tab part or add personal notes – all changes will be seen only by you.

Personal tabs can be accessed anytime from any device, even offline.
Learn more »
Give kudos to tab author, rate the tab!
1 2 3 4 5
comments
print report bad tab
guest
Wanna post a correction for this tab? Suggest correction