Oops, an error
Loading. Please wait.

Clush Tab

version 2
version 2

Intro

Whole song

Interactive

5,411 views 1 this week
1 commentread comment
1 2 3 4 5
please rate
add to favorites
launch autoscroll
font size
0
reset
how to read this tab
guitar tuner
Tab Pro tools
  • play this tab
  • loop segment
  • change instrument
  • show fretboard
  • metronome
×
Best way to learn
"Clush"
Autoscroll
slow
fast
+/-
esc
set tempo
stop
Contributor
Difficulty
Tuning
novice
D A D G B E
-------------------------------------------------------------------------------
                             CLUSH - Isles and Glaciers
-------------------------------------------------------------------------------


Tabbed by: Bernie Baldonado
Email:baldonadobernie@gmail.com


I got bored and i liked this riff from Clush so i started tinkering around with notes 
i figured it out.

I doubt its the exact tab, but it's close

Tuning: drop D (I believe)

(Vic Fuentes)
e|---------------------------------------------------------------------------|
B|---------------------------------------------------------------------------|
G|---5-4---/7-5-4-5----------------------------------------------------------|
D|-------7-------------------------------------------------------------------|
A|---------------------------------------------------------------------------|
D|---------------------------------------------------------------------------|

e|---------------------------------------------------------------------------|
B|---------------------------------------------------------------------------|
G|---5-4-------4-5p4---------------------------------------------------------|
D|-------7-6-7-------7-------------------------------------------------------|
A|---------------------------------------------------------------------------|
D|---------------------------------------------------------------------------|

e|---------------------------------------------------------------------------|
B|---------------------------------------------------------------------------|
G|-----5-4---/9-5-7-5--------------------------------------------------------|
D|--(7)----7-----------------------------------------------------------------|
A|---------------------------------------------------------------------------|
D|---------------------------------------------------------------------------|

e|---------------------------------------------------------------------------|
B|---------------------------------------------------------------------------|
G|---5-5-5----5-4------------------------------------------------------------|
D|--------7-7-----5/7~-------------------------------------------------------|
A|---------------------------------------------------------------------------|
D|---------------------------------------------------------------------------|

I figured it out by ear last night on the low E string but i transcribed it into notes 
Vic MIGHT be playing in his youtube video at the first Isles and Glaciers show


| /  slide up
| \  slide down
| h  hammer-on
| p  pull-off
| ~  vibrato
| +  harmonic
| x  Mute note
===============================================================================
comments
We did not receive enough feedback on this tab! Please rate:
print report bad tab
1 2 3 4 5
1 comment total.
0 reply
devonparrish wrote on March 8 2010, 12:26 am

I like it! it needs a little work but it's dang close :D

I want to post or [tab]
guest
You may want to rate the tab now too:
select rating
Please do not post tabs as comments. Select "correction" instead!