Oops, an error
Loading. Please wait.

Clush Tab

version 3
version 3

Intro

Whole song

Interactive

1,021 views 1 this week
no commentswrite comment
1 2 3 4 5
please rate
add to favorites
launch autoscroll
font size
0
reset
how to read this tab
guitar tuner
Tab Pro tools
  • play this tab
  • loop segment
  • change instrument
  • show fretboard
  • metronome
×
Best way to learn
"Clush"
Autoscroll
slow
fast
+/-
esc
set tempo
stop
Contributor
Difficulty
intermediate
----------------------------------------------------------------------------
                             CLUSH - Isles & Glaciers
----------------------------------------------------------------------------
Tabbed by: aaagtar
Email:kcsnowchurch@hotmail.com

Tuning:Standard

e|----------------------------------------------------------------|
B|----------------------------------------------------------------|
G|---------------14-13--------------------------------------------|
D|--------14-15--------15-14--------------------------------------| (8x)
A|----12----------------------------------------------------------|
E|----------------------------------------------------------------|

e|----------------------------------------------------------------|
B|----------------------------------------------------------------|
G|----------------------------------------------------------------|
D|--------10-9-7/12-10-9-10-------10-9-7\6/7-9-9/10\9-------------|
A|---7-7---------------------7-7----------------------------------|
E|----------------------------------------------------------------|

e|----------------------------------------------------------------|
B|----------------------------------------------------------------|
G|----------------------------------------------------------------|
D|--------10-9-7/14-10/12-10--------------------------------------|
A|---7-7----------------------------------------------------------|
E|----------------------------------------------------------------|

e|----------------------------------------------------------------|
B|----------------------------------------------------------------|
G|----------------------------------------------------------------|
D|-------10-10-10-10-10-10-7---7--------9-9-9-9-9-9-6-6-7---------|
A|---7-7-7--7--7--7--7--7--7---7----7-7-7-7-7-7-7-7-7-7-7---------|
E|----------------------------------------------------------------|



************************************

| /   slide up
| \   slide down
| h   hammer-on
| p   pull-off
| ~   vibrato
| +   harmonic
| x   Mute note
| b   Bend
| pb  Pre-bend
| br  Bend release
| pbr Pre-bend release
| brb Bend release bend

************************************

comments
We did not receive enough feedback on this tab! Please rate:
print report bad tab
1 2 3 4 5
I want to post or [tab]
guest
You may want to rate the tab now too:
select rating
Please do not post tabs as comments. Select "correction" instead!