Oops, an error
Loading. Please wait.

Borinquen Tiene Montuno bass

107 views 1 this week
no commentswrite comment
1 2 3 4 5
3 more votes to show rating
add to favorites
×
Save as Personal and add changes to this tab that will be seen only by you. Learn more ›
×
You can save this tab as Personal to edit and correct it or add notes. All changes will be seen only by you. Learn more »
launch autoscroll
font size
0
reset
guitar tuner
edit
Autoscroll
slow
fast
+/-
esc
set tempo
stop
Compañeros bajistas, ahora vengo con este sabroso número
que probablemente muchos están pidiendo a gritos.

Intro:

G ----9------------|------------|----10--|------|
D -7-------6-------|-7-7-5---5--|--------|------|
A -------7----(2X)-|---------5--|-8------|--7---|
E -----------------|------------|--------|------|

G ---------9-7---7--|-------------------|
D ------9------9----|----7-----7--------|
A -7-10-------------|--7---7-7----(2X)--|
E ------------------|-------------------|

Versos:

"En el ritmo del tambor y en el pique del bongó fue donde nació"...

G ------9--------|-----|--------9-----------|--9--|
D -7-------------|--7--|------9-------------|--9--|
A ----7----(4X)--|-----|-5--7-----7---5--7--|-----|
E ---------------|-----|------------7-------|-----|

"Y con maña y precisión, fuerza bruta y corazón se le
puso el canto"...

G ------9-------|--------9-9--|---------------------|
D -9------------|---6-7-------|-7-6-7-6-7-----------|
A ---7----(4X)--|-7-----------|------------7---7----|
E --------------|-------------|--------------7---5--|

"Con lágrimas de alegría, la voz se resplandecía repitiendo
mi lamento"...

G -------9-------|---6-7--7-7---7--|-----7--|----7--|
D -7-------------|-7----------7----|--------|-7-----|
A ----7----(4X)--|-----------------|-5------|-------|
E ---------------|-----------------|--------|-------|

"Hoy contento yo me siento, y también lleno de orgullo,
al saber que mi Borinquen tiene montuno"...(2X)

G ----|-----|-----|----9--------9-----|
D ----|--7--|--9--|-9------9-------7--|
A -5--|-----|-----|------7----7-------|(2X)
E ----|-----|-----|-------------------|

Coro/Montuno (Varias veces):

G -9-------------9-9------|---9-8-7----|--------9-9-------|---9-8-7--|
D ----9-----9-9------9-7--|-9-------9--|----9-9------9-7--|-7--------|
A -------7----------------|------------|-7----------------|----------|
E ------------------------|------------|------------------|----------|

Solo de tres cubano (ídem):

G -9-7-----------9--|--9----------------|-------9-------|
D ------9-----9-----|------9-7-------7--|----9-----9-7--|
A ---------7--------|----------7--5-----|-7-------------|
E ------------------|-------------------|---------------|

Fin del solo/mambo:

G --------*------------------|--------------*-------|-------|
D --------*------------------|--------------*-------|-------|
A -7-7----*--7---5-8-7----3--|--5-8-7----3--*-(6X)--|--7-7--|
E --------*----7--------5----|---------5----*-------|-------|

Coro/montuno (los mismos arreglos)

Final:

G -9-----------9--|------9-7--|---------|---------2--|
D ----9-----9-----|-9-7-------|-9-------|------------|
A -------7--------|-----------|----7-7--|-7-5-3-1----|
E ----------------|-----------|---------|------------|

Esta es toda la canción. No están escritas las variaciones en
los montunos ni mambos, pues se las dejo a su gusto. Hasta la próxima.
Un abrazo.
Suggest correction
Creating personal tab
Creating personal tab
You can edit any tab online and save it as your Personal.

You can edit, replace or remove any tab part or add personal notes – all changes will be seen only by you.

Personal tabs can be accessed anytime from any device, even offline.
Learn more »
Give kudos to tab author, rate the tab!
1 2 3 4 5
comments
print report bad tab
guest
Wanna post a correction for this tab? Suggest correction