Oops, an error
Loading. Please wait.

Las Esquinas Son bass

59 views 1 this week
no commentswrite comment
1 2 3 4 5
3 more votes to show rating
add to favorites
×
Save as Personal and add changes to this tab that will be seen only by you. Learn more ›
×
You can save this tab as Personal to edit and correct it or add notes. All changes will be seen only by you. Learn more »
launch autoscroll
font size
0
reset
guitar tuner
edit
Autoscroll
slow
fast
+/-
esc
set tempo
stop
Ahora esta pachanga festiva que, aunque ustedes no
lo crean, es autoría del Maestro Rubén Blades, cuando
éste aún estaba en el anonimato, pero se daba a conocer
con sus creaciones para otros cantantes.

Intro:

G ----9-7-------7--------------------7----------|
D -7-------7-5--------9-7-------7-5--------9-7--|
A -----------------7-------7-5----------7-------|
E ----------------------------------------------|

G ----9-9-7-------7-7--------------------|-------------|
D -7---------7-5---------9-7-------7-----|-5-5-5-5-----|
A --------------------7-------7-5-----5--|----------5--|
E ---------------------------------------|-------------|


Versos:

"Las esquinas son... iguales en todos lao's"... (bis)

G ----9-7-------7-----------------------7-----|
D -7-------7-5-----5---9-8-7-------7-5-----5--|
A ----------------------------7-5-------------|
E --------------------------------------------|

"En Panamá o en Borinquen, sirven para estar parao"... (bis)

G ---------------------------9-7-------7------------|
D -9-7-7-----7-5--9-----6-7------7--5-----5--9-8-7--|
A --------5----------7------------------------------|
E --------------------------------------------------|

"Las esquinas son... iguales en todos lao's"... (bis)

G ----9-7-------7-----------------------7-----|
D -7-------7-5-----5---9-8-7-------7-5-----5--|
A ----------------------------7-5-------------|
E --------------------------------------------|

"Te encuentras el poste de luz, y el eterno zafacón. Y el
mismo bonche de siempre, afincando un vacilón".

G ---------------------------9-7-------7------------|
D -9-7-7-----7-5--9-----6-7------7--5-----5--9-8-7--|
A --------5----------7------------------------------|
E --------------------------------------------------|

"Las esquinas son... iguales en todos lao's"... (bis)

G ----9-7-------7-----------------------7-----|--------|
D -7-------7-5-----5---9-8-7-------7-5-----5--|-5-5-5--|
A ----------------------------7-5-------------|--------|
E --------------------------------------------|--------|

Puente:

G ------7-------------7----------7----------|
D -7-5-----7-7-----7-----7-7--5-----7-------|
A --------------5----------------------7-5--|
E ------------------------------------------|

Coro/Montuno/Solo de tres cubano/Mambo
 (varias veces. Se vale improvisar):

G ----7-7-------7---------------7--|
D -7-------7-5-----5-7-------7-----|
A ----------------------7-5--------|
E ---------------------------------|

G ---------7----------------7------------7------------|
D ----7-5-----5-7--------7----------4-5-----5-7-------|
A -5---------------7--5-------7--5---------------7-5--|
E ----------------------------------------------------|

Segundo Coro/Montuno:

G ------------------7--|
D -7-5-------7-5-7-----|
A ------7-5------------|
E ---------------------|


Final:

G ----9-9-7-------7-7--------------------|-------------|
D -7---------7-5---------9-7-------7-----|-5-5-5-5-----|
A --------------------7-------7-5-----5--|----------5--|
E ---------------------------------------|-------------|


Es toda la canción Es muy fácil de tocar. Recuerden oírla las veces
necesarias para agarrarle el ritmo. Cualquier duda o comentario,
escriban. Un abrazo. Hasta la próxima...
Suggest correction
Creating personal tab
Creating personal tab
You can edit any tab online and save it as your Personal.

You can edit, replace or remove any tab part or add personal notes – all changes will be seen only by you.

Personal tabs can be accessed anytime from any device, even offline.
Learn more »
Give kudos to tab author, rate the tab!
1 2 3 4 5
comments
print report bad tab
guest
Wanna post a correction for this tab? Suggest correction