Oops, an error
Loading. Please wait.

Pa' Bravo Yo chords

53 views 1 this week
no commentswrite comment
1 2 3 4 5
3 more votes to show rating
add to favorites
×
Save as Personal and add changes to this tab that will be seen only by you. Learn more ›
×
You can save this tab as Personal to edit and correct it or add notes. All changes will be seen only by you. Learn more »
launch autoscroll
font size
0
reset
transpose
0
reset
display chords
guitar tuner
edit
Autoscroll
slow
fast
+/-
esc
set tempo
stop
Strumming
There is no strumming pattern for this song yet. and get +5 IQ
Intro
   Fm              C        Fm        C          C
e|------------------------------------------------8-|
B|----8-9-----8-9--8--------9-8------8-----------8--|
G|-10-----10.--------10-9-------10-----10-9-----9---|
D|--------------------------------------------10----|
A|--------------------------------------------------|
E|--------------------------------------------------|

             Fm
Pa' bravo yo.

              Fm
Yo que soy mulato oscuro tengo la mente en mi sitio
              C
y estoy bueno de salud.
Bbm        C
Pa' bravo yo.
       C
Yo que tengo sentimiento, tengo sangre de africano
              Fm
y canto con gran virtud.
F
Pa' bravo yo.
F
Yo que sé lo que es la tumba,
               Bbm
el cencerro y el bongó.
Bbm            Fm
Pa' bravo yo, pa' bravo yo
 C                           Fm
yo te lo digo, pa' bravo yo.

Coro
Bbm           Fm
Pa' bravo yo, pa' bravo yo,
          C                                 Fm
yo que le canto a cualquiera conmigo no hay distinción
Bbm           Fm
Pa' bravo yo, pa' bravo yo,
           C                            Fm
los sentimientos que tengo lo entrego de corazon, pa' bravo yo
Bbm           Fm
Pa' bravo yo, pa' bravo yo,
                  C                             Fm
no me venga con tanto paquete mi vida dale pa' allá, pa'bravo yo
Bbm           Fm
Pa' bravo yo, pa' bravo yo,
  C                                Fm
bravo, permíteme aplaudir la forma de herir mis sentimientos.
Bbm           Fm
Pa' bravo yo, pa' bravo yo.


C - Fm - C - Fm


No te equivoques acuerdate que el bravo soy yo.


(Todo 4 veces)
    Bbm         C           Fm
e|----------------------------------------------------|
B|-----------------8-8---------------------8-9----8-9-|
G|-------10-10-9-9-----10-10----10------10-----10-----|
D|-11-11---------------------10------10---------------|
A|----------------------------------------------------|
E|----------------------------------------------------|


Bbm           Fm             C Em
Pa' bravo yo, pa' bravo yo.
Bbm           Fm             C Em
Pa' bravo yo, pa' bravo yo.


 C                            Fm
Tengo sangre de africano, me mato por el bongo
Bbm           Fm
Pa' bravo yo, pa' bravo yo,
C                                  Fm
eso no hay que discutirlo como mi ritmo no hay dos, lo digo yo
Bbm           Fm
Pa' bravo yo, pa' bravo yo,
                       C
lo mismo te canto una cumbia, que un bolero, una rumba,
            Fm
una guaracha si sigo fiel yo al sabor.
Bbm           Fm
Pa' bravo yo, pa' bravo yo,
  C                                Fm
bravo, permíteme aplaudir la forma de herir mis sentimientos.
Bbm           Fm
Pa' bravo yo, pa' bravo yo.


   Fm              C        Fm        C          C
e|------------------------------------------------8-|
B|----8-9-----8-9--8--------9-8------8-----------8--|
G|-10-----10.--------10-9-------10-----10-9-----9---|
D|--------------------------------------------10----|
A|--------------------------------------------------|
E|--------------------------------------------------|

             Fm
Pa' bravo yo.


                   --------
                º-| ¤    ¤ |-º
                º-|  LuïS  |-º
                º-| ¤    ¤ |-º
                          /
                    |    |
        ·===========================·
        | luis_6cuerdas@ |
        |        Lima - Perú        |
        ·===========================·

*Si hubiese algún error o alguna duda, escribe al mail o avisa por MSN*
Suggest correction
Creating personal tab
Creating personal tab
You can edit any tab online and save it as your Personal.

You can edit, replace or remove any tab part or add personal notes – all changes will be seen only by you.

Personal tabs can be accessed anytime from any device, even offline.
Learn more »
Give kudos to tab author, rate the tab!
1 2 3 4 5
comments
print report bad tab
guest
Wanna post a correction for this tab? Suggest correction