Oops, an error
Loading. Please wait.

Eres bass

68 views 1 this week
no commentswrite comment
1 2 3 4 5
3 more votes to show rating
add to favorites
×
Save as Personal and add changes to this tab that will be seen only by you. Learn more ›
×
You can save this tab as Personal to edit and correct it or add notes. All changes will be seen only by you. Learn more »
launch autoscroll
font size
0
reset
guitar tuner
edit
Autoscroll
slow
fast
+/-
esc
set tempo
stop
Les traigo esta tablatura porque me parece que es un buen ejemplo
de un bajo-sesión.

Intro (0:27)

G|----------|-------------|---------|
D|----------|---7h9-9-(s7)|---------|
A|--------6-|-7-----------|-7-6-7-4-|
E|-0-3-5----|-------------|---------|

G|-----|-----|-------|---------|----------|
D|-----|---9-|-------|-7p5p4---|----------|
A|---6-|-----|-------|-------5-|----------|
E|-5---|-8---|-(0)-5-|---------|-3--3--3--|

Verso "No das respuestas ni luz a mi jardín,"

G|-------|-------------|---------|
D|-------|---7h9-9-(s7)|---------|
A|-----6-|-7-----------|-7-6-7-4-|
E|--5----|-------------|---------|

G|-----|-----|-------|---------|----------|
D|-----|---9-|-------|-7p5p4---|----------|
A|---6-|-----|-------|-------5-|----------|
E|-5---|-8---|-(0)-5-|---------|-3--3--3--|

Verso "Eres pequeña como una estrella fugaz,"

G|-------|---------(11)---|---------|
D|-------|---9-9-9--------|---------|
A|-----6-|-7--------------|-7-6-7-4-|
E|--5----|--------------0-|---------|

G|-----|--------|-------|---------|----------|
D|-----|---9----|-------|-7p5p4---|-5--5--5--|
A|---6-|-----9--|-------|-------5-|----------|
E|-5---|-8-----7|-(0)-5-|---------|----------|

Estribillo "Ahora dime qué te han de ofrecer..."

G|-------|-------|---------|----------|---4------|
D|-7-5-4-|---4s7-|-5-4-4---|-9-9------|-2--------|
A|-------|-5-----|-------7-|-----7s-3-|--------0-|
E|-------|-------|---------|----------|----0-3---|

"la tele encendida..."

G|-------|-----|-4---4h5p4---4-5*-| *: pertenece a la tercera de Am,
D|---4h5-|-4---|---4-------4------|    cuya disonancia hace de apoyo
A|-------|---5-|------------------|    a dicho acorde y le otorga la
E|-3-----|-----|------------------|    entrada.


Estribillo "Y ahora dime qué te van a dar..."

G|-------|----------|---------9----(9)|-----|----------|
D|-7-5-4-|---4s7-0-4|-5-4-4-----9-----|-----|----------|
A|-------|-5--------|-------7---------|---3-|---2--0-0-|
E|-------|----------|-------------0---|-3---|-3--------|

"la tele encendida..."

G|--------|-----|-4---4h5p4---4-5*-|
D|--------|-----|---4-------4------|
A|------2-|-0-5-|------------------|
E|-3--0---|-----|------------------|

Solo de Guitarra

G|-------|---------(11)-----|---------|
D|-------|---9-9-9----------|---------|
A|-----6-|-7------------9s--|-7-6---4-|
E|--5----|------------------|-----0---|

G|-----|--------|-------|---------|--------|-------|
D|-----|---9----|-------|-7p5p4---|--------|-------|
A|---6-|-----9--|-------|-------5-|--------|-5-5s0-|
E|-5---|-8-----7|-(0)-5-|---------|-3--3-3-|-------|

Verso "Eres la copa rota..."

G|-------|---------(10h12-12)|-------------|
D|-------|---7h9-9-----------|-------------|
A|-----6-|-7-----------------|-7-6-7-(0)4-4|
E|--5----|-------------------|-------------|

G|---------|-----|-------|---------|----------|
D|---------|---9-|-------|-7p5p4---|----------|
A|-------6-|-----|-------|-------5-|----------|
E|-(0)-5---|-8---|-(0)-5-|---------|-3--3--3--|

Verso "No das respuestas ni luz a mi jardín,"

G|-------|-------------|---------|
D|-------|---7h9-9-(s7)|---------|
A|-----6-|-7-----------|-7-6-7-4-|
E|--5----|-------------|---------|

G|-----|-----------|---|---------|
D|-----|------10-9-|-7-|-7p5p4---|
A|---6-|---10------|---|-------5-|
E|-5---|-8---------|---|---------|

Final: "...ti"

G|---|-----|---------|-----||
D|-7-|-----|------10-|-----||
A|---|-6-6-|---10----|-----||
E|---|-----|-8-------|--3--||

Espero les sirva, cualquier cosa escriban y, ¡que haya más tabs
de bajo de este estilo!! ¡¡Saludos!!
Suggest correction
Creating personal tab
Creating personal tab
You can edit any tab online and save it as your Personal.

You can edit, replace or remove any tab part or add personal notes – all changes will be seen only by you.

Personal tabs can be accessed anytime from any device, even offline.
Learn more »
Give kudos to tab author, rate the tab!
1 2 3 4 5
comments
print report bad tab
guest
Wanna post a correction for this tab? Suggest correction