Oops, an error
Loading. Please wait.

Eres tab

225 views 1 this week
no commentswrite comment
1 2 3 4 5
3 more votes to show rating
add to favorites
×
Save as Personal and add changes to this tab that will be seen only by you. Learn more ›
×
You can save this tab as Personal to edit and correct it or add notes. All changes will be seen only by you. Learn more »
launch autoscroll
font size
0
reset
how to read this tab
guitar tuner
edit
Autoscroll
slow
fast
+/-
esc
set tempo
stop
Intro:

   E |---------------------------------------------|
   B |---------------------------------------------|
   G |--------0-----0-----0-----0-----0-----0------|
   D |------4-----4-----4-----4-----4-----4--(4)---|
   A |----2-----2-----2-----2-----2-----2------(2)-|
   E |--0------------------------------------------|

   E |---------------------------------------------|
   B |--------------------------3------------------|
   G |--------0-----0-----0-----------0-----0------|
   D |------4-----4-----4-----4-----4-----4--(4)---|
   A |----2-----2-----2-----2-----2-----2------(2)-|
   E |--0------------------------------------------|

   __________________________B_____________________________

                            v1
   E |----------------------|------------------------|
   B |--------0-----0---(0)-|-------------0-------0--|
   G |------5-----2---2-----|-------0-----------0----|
   D |----5-----------------|-----4-----4-----4------|
   A |----------2-----------|---2-----2-----2--------|
   E |--5-------------------|-0----------------------|

   E |--------------------------------0----------0-|
   B |--------3-----3--------3------1---3------1---|
   G |------0-----0-|------0------2-----|----2-----|
   D |----4-----4---|----4------2-------|--0-------|
   A |--3-----------2-(2)-----0---------|----------|
   E |----------------------------------2----------|

     v2
   E |------------------------|
   B |-------1-----0-------0--|
   G |-----0---0---|-2---2----| v1
   D |---0-------0-|---0------|
   A |-------------|----------|
   E |-3-----------3----------|

   E |----------3--------------------|
   B |--------1---0-----0h1h0--------|
   G |------0-|---|---0-------2h0----| v2
   D |----0---|---|-0----------------|
   A |--------|---|------------------|
   E |--3-----3---3------------------|

  ____________________Estribillo-A________________________

   E |------------0----------0-|
   B |--------0h1----1-----1---|
   G |------2--------|---2-----|
   D |----2----------|-2-------|
   A |--0------------|---------|
   E |---------------3---------|

   E |-----------------------------------------------------|
   B |-------3-----1-----3------------3-----3-------3------|
   G |-----2-----2-----2---2--------0-----0-------2---(2)--|
   D |---0-----0-----0------------0-----0-------0----------|
   A |-----------------------0-----------------------------|
   E |-2-----------------------3--------------2------------|

   E |----------------------------------------------------|
   B |--------------0-------0-----------3-----3--------3--|
   G |--------0-----------0-----------0-----0-|------0----|
   D |------4-----4-----4-----------4-----4---|----4------|
   A |----2-----2-----2-------0h2-3-----------2-(2)-------|
   E |--0-------------------------------------------------|

   E |----------0-----------------------------|
   B |--------1---1-0h1h0-----0-------3-----3-|
   G |------2-------------2h0-------2-----2---|
   D |----2-----------------------0-----0-----|
   A |--0-------------------------------------|
   E |--------------------------2-------------|

   E |-------------------------------------|
   B |-------3---------0-----0------0------|
   G |-----2---2-----2-|---2-|----2---2----|
   D |---0---------1---|-1---|--1-------1--|
   A |-----------2-----2-----2-------------|
   E |-2-----------------------------------|

  ____________________Estribillo-B________________________

   E |------------0--------------------|
   B |--------0h1----1-----0h1h0-----0-|
   G |------2--------|---2-------2h0---|
   D |----2----------|-2---------------|
   A |--0------------|-----------------|
   E |---------------3-----------------|

   E |-------------------------------------------------|
   B |-------3-----1-----3------------3-----3-------3--|
   G |-----2-----2-----2---2--------0-----0-------2----|
   D |---0-----0-----0------------0-----0-------0------|
   A |-----------------------0-------------------------|
   E |-2-----------------------3--------------2--------|

   E |-----------------------------------------------------|
   B |--------------0-------0-----------3------3--------3--|
   G |--------0-----------0-----------0-|----0-|------0----|
   D |------4-----4-----4-----------4---|--4---|----4------|
   A |----2-----2-----2-------0h2-3-----3------2-(2)-------|
   E |--0--------------------------------------------------|

   E |----------0-----------------------------|
   B |--------1---1-0h1h0-----0-------3-----3-|
   G |------2-------------2h0-------2-----2---|
   D |----2-----------------------0-----0-----|
   A |--0-------------------------------------|
   E |--------------------------2-------------|

   E |-------------------------------------|
   B |-------3---------0-----0------0------|
   G |-----2---2-----2-|---2-|----2---2----|
   D |---0---------1---|-1---|--1-------1--|
   A |-----------2-----2-----2-------------|
   E |-2-----------------------------------|

  ______________________Interludio________________________
                            v
   E |----------------------|------------------------|
   B |--------0-----0---(0)-|-------------0-------0--|
   G |------5-----2---2-----|-------0-----------0----|
   D |----5-----------------|-----4-----4-----4------|
   A |----------2-----------|---2-----2-----2--------|
   E |--5-------------------|-0----------------------|

   E |-------------------------------------------------|
   B |--------3-----3--------3-------1-0-------3---(0)-|
   G |------0-----0-|------0-------2-2---2---2---(2)---| v
   D |----4-----4---|----4-------2-------|-0-----------|
   A |--3-----------2-(2)------0---------|-------------|
   E |-----------------------------------2-------------|

   E |------------------------|
   B |-------1-----0-------0--|
   G |-----0---0---|-2---2----| v
   D |---0-------0-|---0------|
   A |-------------|----------|
   E |-3-----------3----------|

  __________________________B_____________________________
                            v
   E |----------------------|------------------------|
   B |--------0-----0---(0)-|-------------0-------0--|
   G |------5-----2---2-----|-------0-----------0----|
   D |----5-----------------|-----4-----4-----4------|
   A |----------2-----------|---2-----2-----2--------|
   E |--5-------------------|-0----------------------|

   E |--------------------------------0-|
   B |--------3-----3--------3------1---|
   G |------0-----0-|------0------2-----| v
   D |----4-----4---|----4------2-------|
   A |--3-----------2-(2)-----0---------|
   E |----------------------------------|

   E |----------0-------------3--------------|
   B |-3------1---------1-------0h1h0-----0--|
   G |-|----2---------0-0-(0)---------2h0----| v
   D |-|--0---------0-------(0)--------------|
   A |-|-------------------------------------|
   E |-2----------3--------------------------|
  __________________________C_____________________________

   E |----------------------|------------------------|
   B |--------0-----0---(0)-|-------------0-------0--|
   G |------5-----2---2-----|-------0-----------0----|
   D |----5-----------------|-----4-----4-----4------|
   A |----------2-----------|---2-----2-----2--------|
   E |--5-------------------|-0----------------------|

   E |--------------------------------0----------0->
   B |--------3-----3--------3------1---3------1--->
   G |------0-|---0-|------0------2-----|----2-----> continua abajo
   D |----4---|-4---|----4------2-------|--0------->
   A |--3-----3-----2-(2)-----0---------|---------->
   E |----------------------------------2---------->

   E |----------0-----2-----------------------|
   B |--------1-0-------1-------------1h0-----|
   G |------2-------2-----(2)-------0-----0---| v
   D |----2-------1-------------0h2---------2-|
   A |--0---------------------3---------------|
   E |----------------------------------------|

   E |-----2-------2--|
   B |----3-------2---|
   G |---4-------3----| v
   D |--4-------4-----|
   A |-2-------4------|
   E |--------2-------|
__________________________________________________________

                                              - -
  No das respuesta ni luz a mi jardín.         |
  Y no hay guerrero que descanse en ti.        |   A con V1
  No hay luna de agosto ni lluvia de abril     |
  que no haya dormido antes en ti.             |
                                              - -
  Eres pequeña como una estrella fugaz,        |
  como el universo antes de estallar.          |   A con V2
  Vuelas como la risa como el diente de león.  |
  Si yo te miento tú lo haces mejor.           |
                                              - -
  Ahora dime qué te han de ofrecer.            |
  Las tardes perdidas, tu sangre en mi piel,   |   Estribillo-A
  la casa cansada, la manta en el sofá,        |
  la tele encendida, las ganas de llorar.      |
                                              - -
  Y ahora dime qué te van a dar                |
  la paz en tu vientre el fondo del mar,       |   Estribillo-B
  gaviotas cansadas, mi sombra en el sofá,     |
  la brasa encendida, las ganas de matar.      |
                                              - -
                                               |   Interludio
                                              - -
  Eres la copa rota, el mar en que me adentro, |
  viento que susurra, el tálamo desecho,       |   B
  ácido en mis ojos, el café de mis mañanas,   |
  la mano en el sexo, el rumor de batalla.     |
                                              - -
  No das respuesta ni luz a mi jardín.         |
  Y no hay guerrero que descanse en ti.        |   C
  No hay luna de agosto ni lluvia de abril     |
  que no haya dormido antes en ti.             |
                                              - -
____________________________________________________________

   E |-----------     --------|
   B |--------0--     -----0--|
   G |------0----     ----0---|
   D |----0------     ---0----|
   A |--0--------     --0-----|
   E |-----------     --------|
        Arpegio        Rasgeo

*Los números entre paréntesis indican que se tocan
pero casi ni se escuchan,con la practica te darás
cuente si decides tocarlos o no.


Este es uno de los temas que mas me gusta de Ismael Serrano.
Esta versión la saque de una en vivo que encontré en la red,
 esta tocada sin acompañante.
Primero quise publicar este tab solo poniendo los acordes,
pero después me di cuenta que
quería que se vieran los efectos que él hace para que les salga igual.
Yo la toco como está acá y les aseguro que sale muy bien.
Trate de ser lo mas claro posible para que no tengas problemas.
Sé, por videos que e visto, que Ismael la toca de esta manera.
Si quieres puedes comprobarla bajándotela de la pagina
 de Pájaros en tu cabeza, allí la vas a encontrar.
Mucha suerte y cualquier cosa no duden en escribirme.
**E actualizado este Tab, te aclaro que,
por varios comentarios que e tenido,
la pagina mencionada ya no existe**

            
            
Suggest correction
Creating personal tab
Creating personal tab
You can edit any tab online and save it as your Personal.

You can edit, replace or remove any tab part or add personal notes – all changes will be seen only by you.

Personal tabs can be accessed anytime from any device, even offline.
Learn more »
Give kudos to tab author, rate the tab!
1 2 3 4 5
comments
print report bad tab
guest
Wanna post a correction for this tab? Suggest correction