Oops, an error
Loading. Please wait.

Instrucciones Para Salvar El Odio tab

29 views 1 this week
no commentswrite comment
1 2 3 4 5
3 more votes to show rating
add to favorites
×
Save as Personal and add changes to this tab that will be seen only by you. Learn more ›
×
You can save this tab as Personal to edit and correct it or add notes. All changes will be seen only by you. Learn more »
launch autoscroll
font size
0
reset
how to read this tab
guitar tuner
edit
Autoscroll
slow
fast
+/-
esc
set tempo
stop
Intro:

    Am7/C          Dm       Dm/C     G/B      E/G#
E |--------3/p7-8-------------------------------------|
B |------1---------------6--------6--------8--------5-|
G |----0---------------7--------5--------7--------4---|
D |------------------7--------7--------5--------2-----|
A |--3-------------5----------------------------------|
E |-------------------------8--------7--------4-------|
    Am        Am/G  F       Em      A      C#°
E |-----------------------------0-------0--------------|
B |-------0h1p0-----------1-0-----0-2------------5-----|
G |-----2-------2-------2---|-0-----|-2--------3-------|
D |---2---------------3-----|-------|--------5---------|
A |-0-----------------------|-------0------4-----------|
E |---------------3-1-------0--------------------------|

    Dm7/9       Dm7/C#      Csus        G         C
E |-----------------------------3---------------3---------------0-|
B |-------6-----------6-----6-----6-----------3-----------1----1--|
G |-----5---5-------5---5---|-5-----5-------4-----------0-----0---|
D |---3-------3---3-------3-|---------3---5---------2h3------2----|
A |-5-----------4-----------3-----------5---------3---------3-----|
E |---------------------------------------------------------------|

|-----------------------------------------------------------------|

    Dm       Dm/C     G/B      E/G#     Am        Am/G  F
E |--------------------------------------------------------------|
B |-------6--------6--------8--------5--------0h1p0-----------1--|
G |-----7--------5--------7--------4--------2-------2-------2----|
D |---7--------7--------5--------2--------2---------------3------|
A |-5-----------------------------------0------------------------|
E |----------8--------7--------4----------------------3-1--------|

    Em      A      C#°     Dm7/9       Dm7/C#      Csus        G
E |-----0-------0--------------------------------------3---------------3-|
B |-0-----0-2------------5-------6-----------6-----6-----6-----------3---|
G |-|-0-----|-2--------3-------5---5-------5---5---|-5-----5-------4-----|
D |-|-------|--------5-------3-------3---3-------3-|---------3---5-------|
A |-|-------0------4-------5-----------4-----------3-----------5---------|
E |-0--------------------------------------------------------------------|

    Am    Am/G  F       G       Asus4    Am Am/G  F       G
E |-----------------1-------3-----------0-------------1-------3---|
B |-------1-0---------1-0-----0-------3---1---0---------1-0-----0-|
G |-----2---|-2-2-------|-0---------2-|---|-2-|-2-2-------|-0-----|
D |---2-----|---|-3-----|---------2---|---|---|---|-3-----|-------|
A |-0-------|---|-------|-------0-----0---0---|---|-------|-------|
E |---------3---1-------3---------------------3---1-------3-------|

    Asus4    Am Am/G  F       G       E/G#    Am    Am/G  F       G
E |---------0-------------1-------3---------------------------------------|
B |-------3---1---0---------1-0-----0-------5-------1-0-----------0-----0-|
G |-----2-|---|-2-|-2-2-------|-0---------4-------2---|-2-2-----2-|---0---|
D |---2---|---|---|---|-3-----|---------2-------2-----|---|---3---|-0-----|
A |-0-----0---0---|---|-------|---------------0-------|---|-3-----|-------|
E |---------------3---1-------3-------4---------------3---1-------3-------|

    C
E |---------------0-|
B |---------1----1--|
G |-------0-----0---|
D |---2h3------2----|
A |-3---------3-----|
E |-----------------|

|-------------------------------------------------------------------|

Final:

    Em  Am Am/G F       G       C
E |---0---0-----------------------------------0-|
B |-0---1---0-----------0-----0---------1----1--|
G |-|---|---|-2-2-----2-|---0---------0-----0---|
D |-|---|---|---|---3---|-0-------2h3------2----|
A |-2---0---|---|-3-----|-------3---------3-----|
E |---------3---1-------3-----------------------|

|-------------------------------------------------------------------|

             Dm-Dm/C-G/B           E/G#
Si ella se va          no la perdones.
         Am-Am/G-F     Em    A
Si te deja       cultiva bien tu odio.
C#°  Dm7/9   Dm7/C#     Csus  G             Am-Am/G
Nunca seas generoso en olvido,  si ella se va.
F          G            Asus4-Am-Am/G
Si te deja no digas adiós
F              G           Asus4-Am-Am/G
o "Qué vamos a hacerle", no pidas perdón.
F          G
No repases vuestras fotos
E/G#                  Am-Am/G
y, mirándole a los ojos,
F         G         C
regálale eterno tu odio.

Si ella se va no trates nunca de entenderla.
Maldice sus pasos.
Nunca creas sus despedidas, sus promesas, su explicación.
Y provoca llanto y dolor,
que queme su conciencia como el sol,
que el adiós le corte como una cuchilla.
No te confundas, ella es la asesina.

Porque cuando ella se va
alguien la esperará en la esquina.
En otros brazos reirá con otras mentiras,
dirá "Te amo, cuanto tiempo te he estado esperando".
Y te olvidará, todo habrá muerto,
y aquel otoño nunca habrá sido vuestro.
Para qué mentir, que ella se lleve,
F                G                    (Final)
aunque dure poco, tu odio para siempre.


Este Tab lo saque de un audio que encontre en la red.
Era un acustico que hizo para una radio Argentina (FM 100)
en el año 1999.
Suggest correction
Creating personal tab
Creating personal tab
You can edit any tab online and save it as your Personal.

You can edit, replace or remove any tab part or add personal notes – all changes will be seen only by you.

Personal tabs can be accessed anytime from any device, even offline.
Learn more »
Give kudos to tab author, rate the tab!
1 2 3 4 5
comments
print report bad tab
guest
Wanna post a correction for this tab? Suggest correction