Oops, an error
Loading. Please wait.

Recuerdo tab

version 2
version 2

Whole song

128 views 1 this week
no commentswrite comment
1 2 3 4 5
3 more votes to show rating
add to favorites
×
Save as Personal and add changes to this tab that will be seen only by you. Learn more ›
×
You can save this tab as Personal to edit and correct it or add notes. All changes will be seen only by you. Learn more »
launch autoscroll
font size
0
reset
how to read this tab
guitar tuner
edit
Autoscroll
slow
fast
+/-
esc
set tempo
stop
Tercera Colaboracion para  y otra vez de Ismael Serrano, en mi linea :P
Esta version de 'Recuerdo' es del directo de 'Principio de Incertidumbre'.
Sacada tambien a base de ver y ver y ver y ver el DVD. A ver si os gusta.

Si veis algun fallo o mejora mandarmela al correo.


Sin Cejilla


 ||---------2-3-2-----------------0-----------0---------------------0------------0--|
 ||-------3-------3-----------2-3-----------2---3---2---0---------3------------0----|
 ||-----2-----------2-------0-------------2-----|-2---2---------2------------6------|
 ||---0-------------------0-------------0-------|-------------0------------7--------|
 ||---------------------4-------------2---------2-----------------------------------|
 ||---------------------------------------------------------3----------0-5----------|


 ||---------------------------------------------------------------------------------|
 ||-----------3-2---------0-----0-----0---------------------------------------------|
 ||---------2-----------2---2---|-2-----2-------------------------------------------|
 ||-------0-----------0-------0-|---0-----0-----------------------------------------|
 ||-----------------------------|---------------------------------------------------|
 ||---5-2-----------3-----------3---------------------------------------------------|


 ||---------------0-------0------------------0-----------------------------------0--|
 ||---------3-----|-----3--------------2-----|-----3-2---------0-----0-----0--------|
 ||-------2---2---|-2----------------2---2---|-2-------------2---2---|-2-----2------|
 ||-----0-------0-|---0------------2-------2-|---2---------0-------0-|---0-----0----|
 ||---2-----------2--------------------------|-----------------------|--------------|
 ||----------------------------0-2-----------2-----------3-----------3--------------|


 ||-----------------0-------0-------------------------------------------------------|
 ||-----------0-----|-----0---------------------------------------------------------|
 ||---------6---6---|-6-------------------------------------------------------------|
 ||-------7-------7-|---7-----------------------------------------------------------|
 ||-----------------|---------------------------------------------------------------|
 ||---0-5-----------5---------------------------------------------------------------|


Esta tablatura se la dedico a Miriam. Yo la toco y tu la cantas :D que lo haces mu bien.
Pa ti wapa!

Emilio Peña Martinez  (penyaloco@
Almeria Noviembre 2004

            
            
Suggest correction
Creating personal tab
Creating personal tab
You can edit any tab online and save it as your Personal.

You can edit, replace or remove any tab part or add personal notes – all changes will be seen only by you.

Personal tabs can be accessed anytime from any device, even offline.
Learn more »
Give kudos to tab author, rate the tab!
1 2 3 4 5
comments
print report bad tab
guest
Wanna post a correction for this tab? Suggest correction