Oops, an error
Loading. Please wait.

Regresa tab

26 views 1 this week
no commentswrite comment
1 2 3 4 5
3 more votes to show rating
add to favorites
×
Save as Personal and add changes to this tab that will be seen only by you. Learn more ›
×
You can save this tab as Personal to edit and correct it or add notes. All changes will be seen only by you. Learn more »
launch autoscroll
font size
0
reset
how to read this tab
guitar tuner
edit
Autoscroll
slow
fast
+/-
esc
set tempo
stop
Buenas a todos, canción cortesía de


Bueno, pues una nueva de Isma. Yo creo que se acerca a
 la original, pero cualquier rectifiación, a 
el_rincon@

|-----------------------------------------------------|
|----------3--------3--------3-------------2----------|
|--------0--------0--------0---0---------0---0---0----|
|------0--------0--------0-------0-----0-------0------|
|------------------------------------2----------------|
|---3---------2--------0------------------------------|

|-----------0-----------------------------------------|
|---------3---3-----1------1---3-----3---0^1-----1----|
|-------0-------0-----0----------0-----------2-----2--|
|-----0-----------------2----------0-----------2------|
|---3---------------3----------2---------0------------|
|-----------------------------------------------------|

|-----------------------------------------------------|
|-------------2-------0-----0--1-----1--0-----0-------|
|-----------3---3-------0--------0--------0-----------|
|---------0-------0-------0--------0--------0---------|
|-----------------------------------------------------|
|---0--2--------------3--------3--------3-------------|

|-----------------------------|
|---------3---------3---------|
|-------2---------2---2-------| Esta parte conecta con el
|-----0---------0-------0-----| principio
|-----------------------------|
|---2---------0---------------|

Pasan ya varios días sin ti
dónde te has metido dónde te escondiste de mí.

Acuchillo estrellas y grita la gente al ver
llena de tristeza que mi corazón arranque.
Te dije en tu ausencia cuido de madrid
que yo estaré bien y aquí te mentí.

Repaso lugares me convierte en sal el dolor
las calles de huertas donde ella borracha gritó.

Mi nombre en las barras de los bares en que la amé
la guerra en su cuerpo creo que fue ayer.

Rendido empapado en alcohol y en su ausencia
sangrando la herida que ha abierto esta espera
gritaba dónde estás rubia regresa.

            
            
Suggest correction
Creating personal tab
Creating personal tab
You can edit any tab online and save it as your Personal.

You can edit, replace or remove any tab part or add personal notes – all changes will be seen only by you.

Personal tabs can be accessed anytime from any device, even offline.
Learn more »
Give kudos to tab author, rate the tab!
1 2 3 4 5
comments
print report bad tab
guest
Wanna post a correction for this tab? Suggest correction