Oops, an error
Loading. Please wait.

Tierna Y Dulce Historia De Amor tab

66 views 1 this week
no commentswrite comment
1 2 3 4 5
3 more votes to show rating
add to favorites
×
Save as Personal and add changes to this tab that will be seen only by you. Learn more ›
×
You can save this tab as Personal to edit and correct it or add notes. All changes will be seen only by you. Learn more »
launch autoscroll
font size
0
reset
how to read this tab
guitar tuner
edit
Autoscroll
slow
fast
+/-
esc
set tempo
stop
Tierna y dulce historia de amor

   SOL                               RE                DO
|-------3----------------------------2^3-2------------------0------------------------
|-----3----------------------------3-------3--------------1--------------------------
|---0----------------------------2-----------2----------0----------------------------
|------------------------------0-----------------------------------------------------
|----------------------------------------------------3-------------------------------
|-3----------------------------------------------------------------------------------
 
         Mi vida empezó aquel dia              en la inaguracion de un polideportivo

    SOL                        RE                       DO
|-----------------------------------------------------------------------------------
|-----------------------------------------------------------------------------------
|-----------------------------------------------------------------------------------
|------------------------------0----------------------------------------------------
|---------------------------------------------------------3-------------------------
|-----3-----------------------------------------------------------------------------
 
   a la que fui invitado en calidad de diputado y como miembro del partido


    SI                                  MIm
|-----------7---------7-------------------------7-----------------7--------------
|---------7-----------7---------------------7^8---8-----------7^8---8------------
|-------8-------------8-------------------9---------9-------9---------9----------
|-----9---------------9-----------------9-----------------9----------------------
|---------------------9---------------7------------------------------------------
|---7-----------------7--------------------------------10------------------------

   cuando te vi pasar    por la otra acera con tus recién cumplidos quince años

          SI                  LAm            FA
|-----------7------------------5-----------------1-------------------------------
|---------7-----7--------------5---------------1---------------------------------
|-------8----------------------5-------------2-----------------------------------
|-----9------------------------7-------------------------------------------------
|------------------------------7-------------------------------------------------
|---7-----------7--------------5----------1--------------------------------------

                   salías de la escuela y se hizo luz se hizo silencio 

      DO                         RE
|-----------0------------------------3-----------------------7-------------------
|---------1------------------------2------------------7------7-------------------
|-------0------------------------3------------------8---9----8-------------------
|------------------------------0------------------9----------9-------------------
|----3-------------------------------------------------------9-------------------
|-----------------------------------------------7------------7-------------------

  y en un momento   todo paró y nació el amor                  nació el amor
             
       G      D             C
vestías el uniforme de la escuela
                   G           D
el jersey verde la falda de cuadros
              C
hasta las rodillas las medias

             Bm
sobre los hombros una pesada cartera
   Em                   D
quién fuera tu porteador tu tutor
C             Bm        Am
tu institutriz o tu maestra

                     F
para estar cerca siempre de ti
           C        D      C
y dedicarte mil atenciones
   D
mil atenciones

Am                    D               Em
  me darán de lado me quitarán mi escaño
          Bm
sólo porque te amo
      Am            D
estoy perdido me echarán del partido
Em       Bm
no tiene sentido
  Am                       D
y qué le voy a hacer qué y qué dirá mi mujer
    Em          Bm
cuando sepa que te quiero
     Am               D                    C
el mundo entero querrá mi cabeza a sus pies
          D
a sus pies

en los plenos del congreso no hacía otra cosa que pensar en ti
y día a día iba a tu colegio
para verte salir

hasta que un día el amor rebosó en mi cuerpo
dulce violento y así corriendo
fui hacia ti y te pregunté

buena muchacha te acompaño a casa
no olvidaré como dijiste como quiera usted
como quiera usted

poco a poco nuestra relación se fue formalizando
hacíamos juntos los deberes
mientras íbamos a tu casa andando

hasta un día logré invitarle al cine a ver el rey león
cuando las hienas acechaban al héroe
contra mi pecho mi pequeña se estrujó

y se hizo luz se hizo silencio
y en un momento todo paró y nació el amor

nació en amor

me darán de lado me quitarán mi escaño
sólo porque te amo
estoy perdido me echarán del partido
no tiene sentido
y qué le voy a hacer qué y qué dirá mi mujer
cuando sepa que te quiero
el mundo entero querrá mi cabeza a sus pies

a sus pies

pero como todas las historias de amor
al menos las más bellas
la nuestra por supuesto también
acabó en tragedia

y a su madre al enterarse le entró la histeria
me denunció y puso un matón
para seguir a su pequeña

y una gris tarde fui a buscarla y aquel matón
por tres sitios la cara me rompió
la cara me rompió

pronto se hicieron eco de la noticia
los medios de comunicación
y un moderno cantautor
me compuso una canción

durante una temporada el mundo
me dedicaba sus portadas
y para darle mayor gravedad
pedro j un editorial

y tertulianos en la radio y la tele comentaban
como la juventud se pierde
ay como se pierde

me darán de lado me quitarán mi escaño
sólo porque te amo
estoy perdido me echarán del partido
no tiene sentido
y qué le voy a hacer qué y qué dirá mi mujer
cuando sepa que te quiero
el mundo entero querrá mi cabeza a sus pies

a sus pies

el comité disciplinario del partido
movido por la envidia claramente
inició una investigación interna
y me abrieron expediente

y tras un arduo y largo tormento me expulsaron a la vez
del partido el comité
y de mi casa mi buena mujer

y quedé sólo con los recuerdos de una pequeña
con uniforme de escuela
con uniforme

me han dado de lado me han quitado mi escaño
da igual yo te amo
estoy perdido me echaron del partido
sólo quiero estar contigo
y qué le voy a hacer si me echó mi mujer
sólo porque te quiero
el mundo entero está a nuestros pies

a nuestros pies

estoy seguro a mí vendrás
cuando te dejen papá y mama
estaremos juntos lo sé mi amor
cuando seas mayor
me han dado de lado me han quitado mi escaño


Transcripción de Rolan.
Tafahi@

            
            
Suggest correction
Creating personal tab
Creating personal tab
You can edit any tab online and save it as your Personal.

You can edit, replace or remove any tab part or add personal notes – all changes will be seen only by you.

Personal tabs can be accessed anytime from any device, even offline.
Learn more »
Give kudos to tab author, rate the tab!
1 2 3 4 5
comments
print report bad tab
guest
Wanna post a correction for this tab? Suggest correction