Oops, an error
Loading. Please wait.

Vuelvo A Madrid chords

23 views 1 this week
no commentswrite comment
1 2 3 4 5
3 more votes to show rating
add to favorites
×
Save as Personal and add changes to this tab that will be seen only by you. Learn more ›
×
You can save this tab as Personal to edit and correct it or add notes. All changes will be seen only by you. Learn more »
launch autoscroll
font size
0
reset
transpose
0
reset
simplify chords
display chords
guitar tuner
edit
Autoscroll
slow
fast
+/-
esc
set tempo
stop
Strumming
There is no strumming pattern for this song yet. and get +5 IQ
Intro:

(3 veces)
------------3------------3-----------0^1--------------:||
--------1-------------1-----------1-------1----1------:||
-----2--------------0-----------2------------2--------:||
--3--------------2-----------0------------------------:||
------------------------------------------------------:||
------------------------------------------------------:||
     F 9 M          C M                    D 7 m

(1 vez)
------------1------------1-----------------0--------------------0---
---------1-------------1--------------1^3---3---------------1-------
------0-------------0--------------0------------0---------0---------
----0------------0--------------2-----------------------2-----------
------------------------------3-----------------------3-------------
-3-------------3----------------------------------------------------
      G 7                                 C M


     Dm            G M
Agárrate de mi mano,
                    C M                 F9 -C -
sabes que no aguanto los aterrizajes.
Dm7                   G M
Desde lo alto distingo,
                   C M
entre un mar de luciérnagas,
                Fa9M-DoM-
E pequeño barrio.
Dm7                      G M
Amores canallas estarán puntuales,
          C M               F 9 M-C M-
cerrando, los últimos bares.
Dm7
Tocamos la tierra.
   G M                       C M
Ay, niña, te estrujé la mano.


C m        C m (Bajo B bemol)
Lavapiés nos recibe,
                   G# 
fruta de narguile,
                  G m
explosión de color.
F M              G M             C M
Una mujer reza y llora desde un locutorio.
C m        C m (Bajo B bemol)
¿A quién se le ocurre
                   G# 
vivir tan arriba
                  G m
sin un ascensor?
F M                  G M                     C M
Malditas maletas. Pienso en la mujer. También lloro.
F 9 M-C M-D 7 m           G M      C M
Soy afortunado. Yo siempre vuelvo a Madrid.


(Igual que la primera parte)
Escucho mensajes:
los viejos colegas de la facultad
hicieron la fiesta de la primavera
y yo, como siempre,
me la perdí.
Ciudad de mis noches,
del viento del pueblo,
de la resistencia,
del No pasarán,
¿qué hiciste en mi ausencia?
Dime que te acordaste de mi.

Abro los balcones,
te beso, el murmullo de las lavadoras
se mezcla con ritmos,
darbukas, bachatas e incienso.
Maldita ciudad, no es tu mejor momento
y aún estás hermosa.
He de confesarte que te eché de menos.

F 9 M-C M-D 7 m
Agarro la guitarra
F 9 M-C M-D 7 m
y canto para ti.
F 9 M-C M-D 7 m
Qué bueno estar en casa.
G M           C M
Vuelvo a Madrid.

            
            
Suggest correction
Creating personal tab
Creating personal tab
You can edit any tab online and save it as your Personal.

You can edit, replace or remove any tab part or add personal notes – all changes will be seen only by you.

Personal tabs can be accessed anytime from any device, even offline.
Learn more »
Give kudos to tab author, rate the tab!
1 2 3 4 5
comments
print report bad tab
guest
Wanna post a correction for this tab? Suggest correction