Oops, an error
Loading. Please wait.

Ya Nada Es Lo Que Era chords

version 3
version 3

Whole song

25 views 1 this week
no commentswrite comment
1 2 3 4 5
3 more votes to show rating
add to favorites
×
Save as Personal and add changes to this tab that will be seen only by you. Learn more ›
×
You can save this tab as Personal to edit and correct it or add notes. All changes will be seen only by you. Learn more »
launch autoscroll
font size
0
reset
transpose
0
reset
simplify chords
display chords
guitar tuner
edit
Autoscroll
slow
fast
+/-
esc
set tempo
stop
Strumming
There is no strumming pattern for this song yet. and get +5 IQ
Esta canción lleva muchos arreglos entre los acordes y diferentes
posiciones de los mismos, tengan cuidado con eso, escúchenla
mucho.
Si quieres adquirir un archivo de audio donde te explico cómo
tocarla o, mejor aún, un video donde puedes ver cómo se toca
(primero lentamente y luego toda la canción de corrido),
escríbeme!!!

Para bajar una tabla de acordes, descarga:


ACORDES (que puedieran no conocer):

   D/F#    Esus4/Eb    Bbdim7    Asus4    Dsus2   Dsus2/C#
1---3---|-----x-----|----x----|----0----|---0---|----0----|
2---3---|-----0-----|----2----|----3----|---3---|----3----|
3---2---|-----2-----|----0----|----2----|---2---|----2----|
4---0---|-----1-----|----2----|----2----|---0---|----0----|
5---0---|-----2-----|----1----|----0----|---x---|----4----|
6---2---|-----x-----|----x----|----x----|---x---|----x----|


(capo 3er. Traste)

INTRO:

1a. parte:

    D/F# |   G  | D/F# |   G  |   Bm   |    Fm5    | Em, Em6,Em7 | Gm |
1|-------|------|------|------|--------|-----------|-------------|----|
2|----3--|----3-|----3-|----3-|----3---|-2---0---0-|-0-----2---3-|--3-|
3|---2---|---0--|---2--|---2--|---4-4--|---1---1---|----0--------|--3-|
4|--0----|--0---|--0---|--0---|--4---4-|-----------|-------------|--5-|
5|-------|------|------|------|2-------|-----------|-------------|----|
6|-2-----|-3----|-2----|-3----|--------|-1---------|-0-----------|--3-|


2a. parte:

       D/F#    |      G     |     D/F#    |    G
1|-------------|------------|-------------|---------|
2|-----3-------|----3-------|-----3-------|-2-----0-|
3|----2--2---2-|---0--0---0-|----2--2---2-|---0-----|
4|---0-----0---|--0-----0---|---0-----0---|-----0---|
5|-------------|------------|-------------|---------|
6|--2----------|-3----------|--2----------|-3-------|


D/F#           G
    Ya nada es lo que era,

D/F#                    G
   nuevos paisajes, nuevas fronteras

Bm               F#m            G       Esus4/Eb
delimitando mis gestos, mis costumbres.

Em          E/G#        A     Bbdim7
  Otra lumbre   iluminará mis versos,

Bm              F#m     Esus4/Eb
  otros muertos mis soledades,

Em            Gm
  otras felicidades mis fiestas,

Bm            F#m    Fm
  otras dudas mis certezas.

Em     Gm                 INTRO 2a. parte
   Ya ---- nada es lo que era.


D/F#                G
    Me tendré que acostumbrar

D/F#             G
    a esta fría soledad

         Bm              F#m
como un viejo con días contados

             G     Esus4/Eb
a su enfermedad.


Em      E/G#         A       Bbdim7    Bm
  Y nombrarte o esperarte en un --- café,

             F#m      Esus4/Eb
y padecer otro -- principio,

Em               Gm
  y volver a los sitios

Bm                  F#m
en que me has abandonado,

   Fm      Em        Asus4
y ser asesinado allí ----- donde te amé.


D   Dsus2/C#           Bm  Bm/A           G
 Ya -------- sólo me queda ---- la vacía pena

    bajo: F#   E   E/G#         A    G
del via ----- jero ---- que regresa.

D   Dsus2/C#               Bm  Bm/A            G
             Estoy tan perdido, --- soy el asesino

bajo: F#    E     E/G#      A     Gm
      de - tantas --- primaveras.

                  INTRO
Ya nada es lo que era.


D/F#            G          D/F#                G
    Ya nada es lo que era,     recorreré las aceras

    Bm           F#m                    G    Esus4/Eb
buscando una luz --- que me recuerde a ti.

Em              E/G#    A          Bbdim7
  ¿Quién me acompañará ahora a los Alphaville?

Bm                  F#m        Esus4/Eb
  ¿Quién hará cicatriz  mis heridas?

Em            Gm
¿Quién descubrirá mis mentiras?

Bm              F#m     Fm
  ¿Quién facilitará mi huída?

Em            Gm             D
  Y es que ya nada es lo que era.


   Dsus2/C#           Bm  Bm/A           G
Ya -------- sólo me queda ---- la vacía pena

    bajo: F#   E   E/G#         A    G
del via ----- jero ---- que regresa.

D, Dsus2/C#              Bm  Bm/A            G
           Estoy tan perdido, --- soy el asesino

bajo: F#    E     E/G#      A     Gm
      de - tantas --- primaveras.

            D         D/C#, Bm, Bm/A, G, D/F#, E7
Ya nada es lo que era.

Asus4,                  Dsus2
      Ya nada es lo que era.

            
            
Suggest correction
Creating personal tab
Creating personal tab
You can edit any tab online and save it as your Personal.

You can edit, replace or remove any tab part or add personal notes – all changes will be seen only by you.

Personal tabs can be accessed anytime from any device, even offline.
Learn more »
Give kudos to tab author, rate the tab!
1 2 3 4 5
comments
print report bad tab
guest
Wanna post a correction for this tab? Suggest correction