Oops, an error
Loading. Please wait.

Zamba Del Emigrante tab

version 2
version 2

Whole song

28 views 1 this week
no commentswrite comment
1 2 3 4 5
3 more votes to show rating
add to favorites
×
Save as Personal and add changes to this tab that will be seen only by you. Learn more ›
×
You can save this tab as Personal to edit and correct it or add notes. All changes will be seen only by you. Learn more »
launch autoscroll
font size
0
reset
how to read this tab
guitar tuner
edit
Autoscroll
slow
fast
+/-
esc
set tempo
stop
Un día llegué con el disco "Sueños de un hombre despierto"
a la casa e inspirado no me dormí hasta lograr sacar la canción.
Esta fue la primera que quise transcribir y ojalá que les sirva.
Si no entienden los Riff, me avisan al correo y se los paso en el
Guitar Pro, hasta luego...

Intro:

   D                  Gm*      C        D9

E|------2h0---0---------------------------------0-------|
B|----------3---3-------3----------1--------3-----3-----|
G|---2------------2-------0------0---0----2---2-----2---|
D|-0----------------0-------0-----------0-------------0-|
A|--------------------1--------3------------------------|
E|------------------------------------------------------|x2

   D                     A9
A) Tengo que partir, mi corazón
   G                        D9
   Antes que yo otros se fueron
   F#m                            G
   Todos saben que las aves migratorias
              Gm*         C           D9
   Siempre encuentran el camino de regreso

   Dm                           A9
   Todos saben que las aves migratorias
               G                     D9
   Siempre encuentran el camino de regreso

Riff 1

A) No llores más, mi corazón,
   Que yo no busco el olvido
   Sólo busco futuro y horizonte,
   El faro que orienta al naufrago perdido
   Sólo busco futuro y horizonte,
   El faro que orienta al naufrago perdido

Riff 1

   D        D/C#          Bm
A) Sube al ómnibus de Zitarrosa
   Bm/A              G
   Una mañana de domingo,
       D/F#             Em
   Aquel que nos llevaba al cerro
   Buscaras en la ciudad dormida
   El sueño que tuvimos siendo niños
   Buscaras en la ciudad dormida
   El sueño que tuvimos siendo niños

Riff1

   G                   Dm
B) Regarás bien, mi corazón,
   C                           G
   Nuestros jardín y los recuerdos
   Bm                        C
   Y cuando pasees por el mercado
   Cm*                F               G
   Brindarás a mi salud con medio y medio
   Gm                        Dm
   Y cuando pasees por el mercado
   C                                G
   Brindarás a mi salud con medio y medio

Riff 2

  Fin

*************************************************

Riff 1


E|-5--3-1--0--------------0------------0-1-0----|
B|-3---------1--------3------3-------3--------1-|
G|-3-----------0----2---2------2----------------|
D|-3--------------0--------------0--------------|
A|---------3-------------------------1----------|
E|----------------------------------------------|y un D

Riff2

E|-10--8-------------------------------------------5--6--10---8--|
B|-8-----11-10-------------------10-------------8----------------|
G|-8-----------10---------12---------12--------------------------|
D|-8-------------------12----12---------12-----------------------|
A|----------8-------10---------------------10---6----------------|
E|---------------------------------------------------------------|
                                        Termina con G prolongado.

            
            
Suggest correction
Creating personal tab
Creating personal tab
You can edit any tab online and save it as your Personal.

You can edit, replace or remove any tab part or add personal notes – all changes will be seen only by you.

Personal tabs can be accessed anytime from any device, even offline.
Learn more »
Give kudos to tab author, rate the tab!
1 2 3 4 5
comments
print report bad tab
guest
Wanna post a correction for this tab? Suggest correction