Oops, an error
Loading. Please wait.

Poets Corner Tab

114 views 1 this week
no commentswrite comment
1 2 3 4 5
please rate
add to favorites
launch autoscroll
font size
0
reset
how to read this tab
guitar tuner
Autoscroll
slow
fast
+/-
esc
set tempo
stop
Help us to improve Ultimate-Guitar.com Take our survey!
×
Author
Difficulty
intermediate
yew.


INTRO:

     D             C     G         
                                      
E|---2-0-2-3-2-2-3-3-3-3-3-3-3-3-|
B|---3-3-3-3-3-3-3-3-3-3-3-3-3-3-|
G|---2-2-2-2-2-2-2-0-0-0-0-0-0-0-|
D|-0-0-0-0-0-0-0-0-2-2-2-0-0-0-0-|
A|---0-0-0-0-0-0-0-3-3-3-2-2-2-2-| 
E|-----------------------3-3-3-3-|


     D             C     G
E|---2-0-2-3-2-2-3-----3------3-----|
B|---3-3-3-3-3-3-3------------------|
G|---2-2-2-2-2-2-2---0-----0--------|
D|-0-0-0-0-0-0-0-0-------------0h2-0|
A|---0-0-0-0-0-0-0-3----------------| 
E|-----------------------3----------|



     D             C     G         --\
                                      \
E|---2-0-2-3-2-2-3-3-3-3-3-3-3-3-|     \
B|---3-3-3-3-3-3-3-3-3-3-3-3-3-3-|      \
G|---2-2-2-2-2-2-2-0-0-0-0-0-0-0-|       \
D|-0-0-0-0-0-0-0-0-2-2-2-0-0-0-0-|        |
A|---0-0-0-0-0-0-0-3-3-3-2-2-2-2-|        |
E|-----------------------3-3-3-3-|        |
                                         /    \
                                         \_____\  MAIN
     D             C     G               /     /  PART
                                         \    /
E|---2-0-2-3-2-2-3----3-----3-----|        |
B|---3-3-3-3-3-3-3----------------|        |
G|---2-2-2-2-2-2-2---0----0-------|        |
D|-0-0-0-0-0-0-0-0----------0h2-0-|       /
A|---0-0-0-0-0-0-0--3-------------|      / 
E|----------------------3---------|     /
                                       /
                                    __/



E|-----2h3p3-------3-------3-----3---|
B|---3-------3---3---3-------------3-|
G|-----------------------0-----0-----|
D|-0-----------0---------------------|
A|---------------------3-------------|
E|---------------------------3-------|

E|-----2h3p3-------3-------3-----X---|
B|---3-------3---3---3-----------X---|
G|-----------------------0-------X---|
D|-0-----------0-----------------X---|
A|---------------------3---------X---|
E|---------------------------3---X---|
Suggest correction
Give kudos to tab author, rate the tab!
1 2 3 4 5
comments
print report bad tab
guest
You may want to rate the tab now too:
select rating
Please do not post tabs as comments. Select "correction" instead!