Oops, an error
Loading. Please wait.

White Sandy Beach Of Hawaii ukulele

version 2
version 2

Whole song

1,059 views 21 this week
no commentswrite comment
1 2 3 4 5
x 5
add to favorites
×
Save as Personal and add changes to this tab that will be seen only by you. Learn more ›
×
You can save this tab as Personal to edit and correct it or add notes. All changes will be seen only by you. Learn more »
launch autoscroll
font size
0
reset
transpose
0
reset
simplify chords
display chords
guitar tuner
edit
Autoscroll
slow
fast
+/-
esc
set tempo
stop
Author
Difficulty
Strumming
There is no strumming pattern for this song yet. and get +5 IQ
This is an easier version and the only ukulele tab on UG for it. 
Ideally, this should be played on a Uke with a low G but a high G still works

        G C E A

F:      2 0 1 0 - (this note is occasionally 3)
Fadd9:  2 0 3 0
Bb:     3 2 1 1
Bbm6:   0 1 1 1
C7:     0 0 0 1
C7*:    3 0 0 3
Bbadd9: 3 2 1 3

Intro:

   F               Fadd9           F               Fadd9
A|-------3-------0-------0-------0-------3-------0-------0-------0-|
E|-----1-------1-------3-------3-------1-------1-------3-------3---|
C|---0-------0-------0-------0-------0-------0-------0-------0-----|
G|-2-------2-------2-------2-------2-------2-------2-------2-------|

   Bb              Bbm6            F               C7*
A|-------1-------1-------1-------1-------0-------0-------3-------3-|
E|-----1-------1-------1-------1-------1-------1-------0-------0---|
C|---2-------2-------1-------1-------0-------0-------0-------0-----|
G|-3-------3-------0-------0-------2-------2-------3-------3-------|

Verse 1:

   F               Fadd9           F               Fadd9
A|-------3-------0-------0-------0-------3-------0-------0-------0-|
E|-----1-------1-------3-------3-------1-------1-------3-------3---|
C|---0-------0-------0-------0-------0-------0-------0-------0-----|
G|-2-------2-------2-------2-------2-------2-------2-------2-------|

   Bb              Bbm6            F               C7*
A|-------1-------1-------1-------1-------0-------0-------3-------3-|
E|-----1-------1-------1-------1-------1-------1-------0-------0---|
C|---2-------2-------1-------1-------0-------0-------0-------0-----|
G|-3-------3-------0-------0-------2-------2-------3-------3-------|

   F               Fadd9           F               Fadd9
A|-------3-------0-------0-------0-------3-------0-------0-------0-|
E|-----1-------1-------3-------3-------1-------1-------3-------3---|
C|---0-------0-------0-------0-------0-------0-------0-------0-----|
G|-2-------2-------2-------2-------2-------2-------2-------2-------|

   Bb              Bbm6            F               F
A|-------1-------1-------1-------1-------0-------0-------0-------0-|
E|-----1-------1-------1-------1-------1-------1-------1-------1---|
C|---2-------2-------1-------1-------0-------0-------0-------0-----|
G|-3-------3-------0-------0-------2-------2-------2-------2-------|

Chorus:

   C7              C7              Bb              C7*
A|-------1-------1-------1-------1-------1-------1-------3-------3-|
E|-----0-------0-------0-------0-------1-------1-------0-------0---|
C|---0-------0-------0-------0-------2-------2-------0-------0-----|
G|-0-------0-------0-------0-------3-------3-------3-------3-------|

   C7              C7              C7              C7*             C7* 
e|-------1-------1-------1-------1-------1-------1-------3-------3-------3-------3-|
B|-----0-------0-------0-------0-------0-------0-------0-------0-------0-------0---|
G|---0-------0-------0-------0-------0-------0-------0-------0-------0-------0-----|
D|-0-------0-------0-------0-------0-------0-------3-------3-------3-------3-------|

Verse 2:

   F               Fadd9           F               Fadd9
A|-------3-------0-------0-------0-------3-------0-------0-------0-|
E|-----1-------1-------3-------3-------1-------1-------3-------3---|
C|---0-------0-------0-------0-------0-------0-------0-------0-----|
G|-2-------2-------2-------2-------2-------2-------2-------2-------|

   Bb              Bbm6            F               F
A|-------1-------1-------1-------1-------0-------0-------0-------0-|
E|-----1-------1-------1-------1-------1-------1-------1-------1---|
C|---2-------2-------1-------1-------0-------0-------0-------0-----|
G|-3-------3-------0-------0-------2-------2-------2-------2-------|

Chorus:

   C7              C7              Bb              C7*
A|-------1-------1-------1-------1-------1-------1-------3-------3-|
E|-----0-------0-------0-------0-------1-------1-------0-------0---|
C|---0-------0-------0-------0-------2-------2-------0-------0-----|
G|-0-------0-------0-------0-------3-------3-------3-------3-------|

   C7              C7              C7              C7*             C7* 
e|-------1-------1-------1-------1-------1-------1-------3-------3-------3-------3-|
B|-----0-------0-------0-------0-------0-------0-------0-------0-------0-------0---|  (Iz plays the C7* for a 
G|---0-------0-------0-------0-------0-------0-------0-------0-------0-------0-----|    few more measures)
D|-0-------0-------0-------0-------0-------0-------3-------3-------3-------3-------|   

Verse 3:

   F               Fadd9           F               Fadd9
A|-------3-------0-------0-------0-------3-------0-------0-------0-|
E|-----1-------1-------3-------3-------1-------1-------3-------3---|
C|---0-------0-------0-------0-------0-------0-------0-------0-----|
G|-2-------2-------2-------2-------2-------2-------2-------2-------|

   Bb              Bb              Bbadd9
A|-------1-------1-------1-------1-------3-------3-|
E|-----1-------1-------1-------1-------1-------1---|
C|---2-------2-------2-------2-------2-------2-----|
G|-3-------3-------3-------3-------3-------3-------|

   Bbm6            Bbm6            F               F
A|-------1-------1-------1-------1-------0-------0-------0-------0-|
E|-----1-------1-------1-------1-------1-------1-------1-------1---|
C|---1-------1-------1-------1-------0-------0-------0-------0-----|
G|-0-------0-------0-------0-------2-------2-------2-------2-------|

   Bb              Bbm6            F               F
A|-------1-------1-------1-------1-------0-------0-------0-------0-|
E|-----1-------1-------1-------1-------1-------1-------1-------1---|
C|---2-------2-------1-------1-------0-------0-------0-------0-----|
G|-3-------3-------0-------0-------2-------2-------2-------2-------|

   Bb              Bbm6            Bbm6            Bbm6
A|-------1-------1-------1-------1-------1-------1-------1-------1-|
E|-----1-------1-------1-------1-------1-------1-------1-------1---|
C|---2-------2-------1-------1-------1-------1-------1-------1-----|
G|-3-------3-------0-------0-------0-------0-------0-------0-------|

   Bbm6            Bbm6            F               F
A|-------1-------1-------1-------1-------0-------0-------0-------0-|
E|-----1-------1-------1-------1-------1-------1-------1-------1---|
C|---1-------1-------1-------1-------0-------0-------0-------0-----|
G|-0-------0-------0-------0-------2-------2-------2-------2-------|

   F               Fadd9           F               Fadd9           F
A|-------3-------0-------0-------0-------3-------0-------0-------0-----------------|
E|-----1-------1-------3-------3-------1-------1-------3-------3---1---------------|
C|---0-------0-------0-------0-------0-------0-------0-------0---------------------|
G|-2-------2-------2-------2-------2-------2-------2-------2-------2---------------|

Chords and Lyrics:

F     Fadd9    F    Fadd9
Bb    Bbm    F    C7*
        
  F             Fadd9          F               Fadd9
I saw you in my dream, we were walking hand in hand
     Bb          Bbm6       F      C7*
On a white sandy beach of Hawai’i
        F              Fadd9        F              Fadd9
We were playing in the sun, we were having so much fun
     Bb          Bbm6       F      F
On a white sandy beach of Hawai’i

C7           C7    Bb                  C7*
Sound of the ocean soothes my restless soul
C7           C7    C7                 C7*    C7* 
Sound of the ocean rocks me all night long  

      F               Fadd9       F            Fadd9
Those hot long summer days, lying there in the sun
     Bb          Bbm6       F      F
On a white sandy beach of Hawai’i

C7           C7    Bb                  C7*
Sound of the ocean soothes my restless soul
C7           C7    C7                 C7*    C7* 
Sound of the ocean rocks me all night long  

     F           Fadd9    F              Fadd9
Last night in my dream, I saw your face again
        Bb           Bb   Bbadd9    Bbm6        Bbm6       F 
We were there in the sun,      on a white sandy beach of Hawai’i
     Bb          Bbm6       F     F
On a white sandy beach of Hawai’i
     Bb          Bbm6    Bbm6    Bbm6      F     F
On a white sandy beach                of Hawai’i

F    Fadd9    F    Fadd9    F

...
...

SHARK!

            
            
Suggest correction
Creating personal tab
Creating personal tab
You can edit any tab online and save it as your Personal.

You can edit, replace or remove any tab part or add personal notes – all changes will be seen only by you.

Personal tabs can be accessed anytime from any device, even offline.
Learn more »
comments
print report bad tab
guest
You may want to rate the tab now too:
select rating
Wanna post a correction for this tab? Suggest correction