Oops, an error
Loading. Please wait.

Middle East Bass Tab

509 views 6 this week
no commentswrite comment
1 2 3 4 5
3 more votes to show rating
add to favorites
launch autoscroll
font size
0
reset
guitar tuner
Autoscroll
slow
fast
+/-
esc
set tempo
stop
Help us to improve Ultimate-Guitar.com Take our survey!
×
Difficulty
novice
This is how I hear it. May be some slight variation but this should do it for you.

Beginning (do twice):
G---------------------------------------------------------------------------|
D-------------------------------------------------------------------11-11---|
A----------12-12-----------------14-14--------9-9-9-----9-----9-9-9-------9-|
E-10-10-10-------10-----12-12-12-------12-----------9-9---------------------|

Then when they start singing (and most of the song):
G--------------------------------------------------------------------------|
D------------------------------------------------------------------11-11---|
A----------12-12-----------------11-10-9-----9-9-9-----9-----9-9-9-------9-|
E-10-10-10-------10-----12-12-12-------------------9-9---------------------|

Interlude "Watch the Middle East...", do a couple times then back to above
G----------------------------------------------|
D----------------------------------------------|
A----------12-12------------------14-14--------|
E-10-10-10-------10-----12-12-12--------12-----|

G----------------------------------------------|
D----------------------------------------------|
A----------12-12-----------------11-10-9-------|
E-10-10-10-------10-----12-12-12---------------|
Suggest correction
Give kudos to tab author, rate the tab!
1 2 3 4 5
comments
print report bad tab
guest
You may want to rate the tab now too:
select rating
Wanna post a correction for this tab? Suggest correction