Oops, an error
Loading. Please wait.

Coma Tab

version 1
version 1

Whole song

Interactive

643 views 66 this week
no commentswrite comment
1 2 3 4 5
3 more votes to show rating
add to favorites
launch autoscroll
font size
0
reset
how to read this tab
guitar tuner
Autoscroll
slow
fast
+/-
esc
set tempo
stop
Help us to improve Ultimate-Guitar.com Take our survey!
×
Author
Difficulty
intermediate
Most of the song is sixteenth and eighth notes, so heads up. Also, the 7 to 8 hammer-on in the ninth measure 
are 32nd notes.

Tuning is G#-D#-G#-C#-F-A# (Drop G#).

Intro

A#|---------------------------|----------------------------|---------------------------|
F |-8---8---------------------|-6---6----------------------|-8---8---------------------|
C#|-7---7---------------------|-5---5----------------------|-7---7---------------------|
G#|-8---8---------------------|-0---0----------------------|-8---8---------------------|
D#|--------------------5------|----------------------5-6---|--------------------5------|
G#|-------x-x-5---3--x---3--x-|-------x-x-0---1--x-x-----x-|-------x-x-5---3--x---3--x-|

A#|---------------------------|----------------------------|---------------------------|
F |-6---6----------------3----|-8---8----------------------|-6---6---------------------|
C#|-5---5----------------2----|-7---7----------------------|-5---5---------------------|
G#|-0---0----------------3----|-8---8----------------------|-0---0---------------------|
D#|---------------------------|--------------------5-------|---------------------5-6---|
G#|-------x-x-0---1--x-x----x-|-------x-x-5---3--x---3--x--|------x-x-0---1--x-x-----x-|

A#|---------------------------|----------------------------|---------------------------|
F |-8---8---------------------|-6---6----------------------|---------------------------|
C#|-7---7---------------------|-5---5----------------------|-------------7-------7-----|
G#|-8---8---------------------|-0---0--------------3h5-----|------8----8---5-7h8---5---|
D#|--------------------5------|----------------------------|-8-10---10---------------8-|
G#|-------x-x-5---3--x---3--x-|-------x-x-0-x-x-1------1-0-|-(continued below)---------|
PM                                                           * *    *  *   *                   

A#|------------------------------------------------------------------------------------|
F |------------------------------------------------------------------------------------|
C#|------------------------------------------------------------------------------------|
G#|------------------------------------------------------------------------------------|
D#|------------------------------------------------------------------------------------|
G#|-1--x-0-----------------------------------------------------------------------------|

First Verse

A#|---------------------------|----------------------------|---------------------------|
F |---------------------------|----------------------------|---------------------------|
C#|---------------------------|----------------------------|---------------------------|
G#|-8-8--8-----------7-7---7--|-3----3-3--3----3-------3-3-|-5-5--5-----------3-3---3--|
D#|-5-5--5-----------3-3---3--|-1----1-1--1----1-------1-1-|-1-1--1-----------0-0---0--|
G#|-5-5--5-----------3-3---3--|-0----0-0--0----0-------0-0-|-1-1--1-----------0-0---0--|
PM  * *  *           * *   *    *    * *  *    *       * *   * *  *           * *   *

A#|---------------------------|----------------------------|---------------------------|
F |---------------------------|----------------------------|---------------------------|
C#|-----0----------------3----|----------------------------|---------------------------|
G#|---------------------------|-8-8--8--8-8--7--7-7--7--7--|-5--5--5-5--5--5-5--5--5-5-|
D#|-6-8-----------------------|-5-5--5--5-5--3--3-3--3--3--|-3--3--3-3--3--3-3--3--3-3-|
G#|-------1--0---1---x---1--0-|-5-5--5--5-5--3--3-3--3--3--|---------------------------|
PM  * *                         * *  *  * *  *  * *  *  *    *  *  * *  *  * *  *  * *

A#|---------------------------|--------------------------------------------------------|
F |---------------------------|--------------------------------------------------------|
C#|---------------------------|-----0--------------------------------------------------|
G#|-5-5--5-----------3-3---3--|--------------------------------------------------------|
D#|-1-1--1-----------1-1---1--|-6-8--------------------5-------------------------------|
G#|-1-1--1-----------0-0---0--|-------1--0-0-0-0--0--0---3--x--------------------------|
PM  * *  *           * *   *    * *      * * * *  *  * 

Pre-Chorus

A#|---------------------------|----------------------------|---------------------------|
F |---------------------------|----------------------------|---------------------------|
C#|-----------3---------------|----------------------------|---------------------------|
G#|-------5h7-----------------|-------------5------8-------|---------------------------|
D#|-5-----------5-------------|---------5-8---8-10---10--8-|-5-----5---5-1----1--------|
G#|-5---5-------5-------------|----------------------------|-5---3---3---1--1-1--------|
PM      *                               * *   * *    *   *       *   *      *

A#|------------------------------------------------------------------------------------|
F |------------------------------------------------------------------------------------|
C#|------------------------------------------------------------------------------------|
G#|----------------------7/------------------------------------------------------------|
D#|----------------------3/------------------------------------------------------------|
G#|--------------------0-3/------------------------------------------------------------|

Chorus

A#|---------------------------|----------------------------|---------------------------|
F |---------------------------|----------------------------|---------------------------|
C#|---------------------------|----------------------------|---------------------------|
G#|--8--8--8--8--8--8--7--7---|--5--5--5--5--5--5--5--5----|--8--8--8--8--8--8--7--7---|
D#|--5--5--5--5--5--5--3--3---|--1--1--1--1--1--1--1--1----|--5--5--5--5--5--5--3--3---|
G#|--5--5--5--5--5--5--3--3---|--1--1--1--1--1--1--1--1----|--5--5--5--5--5--5--3--3---|

A#|---------------------------|----------------------------|---------------------------|
F |---------------------------|----------------------------|---------------------------|
C#|---------------------------|----------------------------|---------------------------|
G#|-10--10--10-10-10-10-10-10-|--8--8--8--8--8--8--7--7----|--5--5--5--5--5--5--5--5---|
D#|-10--10--10-10-10-10-10-10-|--5--5--5--5--5--5--3--3----|--1--1--1--1--1--1--1--1---|
G#|-10--10--10-10-10-10-10-10-|--5--5--5--5--5--5--3--3----|--1--1--1--1--1--1--1--1---|

A#|---------------------------|--------------------------------------------------------|
F |---------------------------|--------------------------------------------------------|
C#|---------------------------|--------------------------------------------------------|
G#|--8--8--8--8--8--8--7--7---|-3-5----------------------------------------------------|
D#|--5--5--5--5--5--5--3--3---|--------------------------------------------------------|
G#|--5--5--5--5--5--5--3--3---|-----1--1--1-1--1--0--0-0-------------------------------|
PM                                        *          *

Second Verse

A#|---------------------------|----------------------------|---------------------------|
F |---------------------------|----------------------------|---------------------------|
C#|---------------------------|----------------------------|---------------------------|
G#|-8-8--8-----------7-7---7--|-3----3-3--3----3-------3-3-|-5-5--5-----------3-3---3--|
D#|-5-5--5-----------3-3---3--|-1----1-1--1----1-------1-1-|-1-1--1-----------0-0---0--|
G#|-5-5--5-----------3-3---3--|-0----0-0--0----0-------0-0-|-1-1--1-----------0-0---0--|
PM  * *  *           * *   *    *    * *  *    *       * *   * *  *           * *   *

A#|---------------------------|----------------------------|---------------------------|
F |---------------------------|----------------------------|---------------------------|
C#|-----0----------------3----|----------------------------|---------------------------|
G#|---------------------------|-8-8--8--8-8--7--7-7--7--7--|-5--5--5-5--5--5-5--5--5-5-|
D#|-6-8-----------------------|-5-5--5--5-5--3--3-3--3--3--|-3--3--3-3--3--3-3--3--3-3-|
G#|-------1--0---1---x---1--0-|-5-5--5--5-5--3--3-3--3--3--|---------------------------|
PM  * *                         * *  *  * *  *  * *  *  *    *  *  * *  *  * *  *  * *

A#|---------------------------|--------------------------------------------------------|
F |---------------------------|--------------------------------------------------------|
C#|---------------------------|-----0--------------------------------------------------|
G#|-5-5--5-----------3-3---3--|--------------------------------------------------------|
D#|-1-1--1-----------1-1---1--|-6-8--------------------5-------------------------------|
G#|-1-1--1-----------0-0---0--|-------1--0-0-0-0--0--0---3--x--------------------------|
PM  * *  *           * *   *    * *      * * * *  *  * 

Pre-Chorus 

A#|---------------------------|----------------------------|---------------------------|
F |-8---8---------------------|-6---6----------------------|-8---8---------------------|
C#|-7---7---------------------|-5---5----------------------|-7---7---------------------|
G#|-8---8---------------------|-0---0----------------------|-8---8---------------------|
D#|--------------------5------|----------------------5-6---|--------------------5------|
G#|-------x-x-5---3--x---3--x-|-------x-x-0---1--x-x-----x-|-------x-x-5---3--x---3--x-|

A#|------------------------------------------------------------------------------------|
F |-6---6------------------------------------------------------------------------------|
C#|-5---5------------------------------------------------------------------------------|
G#|-0---0------------------------------------------------------------------------------|
D#|-----------0---1--------------------------------------------------------------------|
G#|-------x-x-0---1--------------------------------------------------------------------|

Chorus

A#|---------------------------|----------------------------|---------------------------|
F |---------------------------|----------------------------|---------------------------|
C#|---------------------------|----------------------------|---------------------------|
G#|--8--8--8--8--8--8--7--7---|--5--5--5--5--5--5--5--5----|--8--8--8--8--8--8--7--7---|
D#|--5--5--5--5--5--5--3--3---|--1--1--1--1--1--1--1--1----|--5--5--5--5--5--5--3--3---|
G#|--5--5--5--5--5--5--3--3---|--1--1--1--1--1--1--1--1----|--5--5--5--5--5--5--3--3---|

A#|---------------------------|----------------------------|---------------------------|
F |---------------------------|----------------------------|---------------------------|
C#|---------------------------|----------------------------|---------------------------|
G#|-10--10--10-10-10-10-10-10-|--8--8--8--8--8--8--7--7----|--5--5--5--5--5--5--5--5---|
D#|-10--10--10-10-10-10-10-10-|--5--5--5--5--5--5--3--3----|--1--1--1--1--1--1--1--1---|
G#|-10--10--10-10-10-10-10-10-|--5--5--5--5--5--5--3--3----|--1--1--1--1--1--1--1--1---|

A#|---------------------------|--------------------------------------------------------|
F |---------------------------|--------------------------------------------------------|
C#|---------------------------|--------------------------------------------------------|
G#|--8--8--8--8--8--8--7--7---|-3-5----------------------------------------------------|
D#|--5--5--5--5--5--5--3--3---|--------------------------------------------------------|
G#|--5--5--5--5--5--5--3--3---|-----1--1--1-1--1--0--0-0-------------------------------|
PM                                        *          *

Build-Up

A#|---------------------------|--------------------------------------------------------|
F |--8--8--8--8--8--8--8--8---|--8--8--8--8--8--8--8--8--------------------------------|
C#|--7--7--7--7--7--7--7--7---|--7--7--7--7--7--7--7--7--------------------------------|
G#|--5--5--5--5--5--5--5--5---|--5--5--5--5--5--5--5--5--------------------------------|
D#|--6--6--6--6--6--6--6--6---|--6--6--6--6--6--6--6--6--------------------------------|
G#|---------------------------|--------------------------------------------------------|


Breakdown 

A#|---------------------------|----------------------------|---------------------------|
F |---------------------------|----------------------------|---------------------------|
C#|---------------------------|----------------------------|---------------------------|
G#|---------------------------|----------------------------|---------------------------|
D#|-5------------------5------|----5------1----1-0---------|---5--------5----1---------|
G#|-5------------------5------|----5------1--x-1-0---------|---5--------5----1---------|

A#|---------------------------|----------------------------|---------------------------|
F |---------------------------|----------------------------|---------------------------|
C#|---------------------------|----------------------------|---------------------------|
G#|---------------------------|----------------------------|---------------------------|
D#|--1------------1----0--0---|--5----------5--------------|---5------1----1--0--------|
G#|--1------------1--x-0--0---|--5----------5--------------|---5------1--x-1--0--------|

A#|---------------------------|--------------------------------------------------------|
F |---------------------------|--------------------------------------------------------|
C#|---------------------------|--------------------------------------------------------|
G#|---------------------------|-----------------5---5-8--------------------------------|
D#|---5----------5----1-------|---1---------6-8---8------------------------------------|
G#|---5----------5----1-------|---1---------------------0------------------------------|
PM                                          * * * * * * *

Chorus


A#|---------------------------|----------------------------|---------------------------|
F |---------------------------|----------------------------|---------------------------|
C#|---------------------------|----------------------------|---------------------------|
G#|---------------------------|----------------------------|--8--8--8--8--8--8--7--7---|
D#|-5----------------------5--|-------5--------------------|--5--5--5--5--5--5--3--3---|
G#|-5----------------------5--|----5--5--------------------|--5--5--5--5--5--5--3--3---|
PM                                 *

A#|---------------------------|----------------------------|---------------------------|
F |---------------------------|----------------------------|---------------------------|
C#|---------------------------|----------------------------|---------------------------|
G#|--5--5--5--5--5--5--5--5---|--8--8--8--8--8--8--7--7----|-10--10--10-10-10-10-10-10-|
D#|--1--1--1--1--1--1--1--1---|--5--5--5--5--5--5--3--3----|-10--10--10-10-10-10-10-10-|
G#|--1--1--1--1--1--1--1--1---|--5--5--5--5--5--5--3--3----|-10--10--10-10-10-10-10-10-|

A#|---------------------------|----------------------------|---------------------------|
F |---------------------------|----------------------------|---------------------------|
C#|---------------------------|----------------------------|---------------------------|
G#|--8--8--8--8--8--8--7--7---|--5--5--5--5--5--5--5--5----|---------------------------|
D#|--5--5--5--5--5--5--3--3---|--1--1--1--1--1--1--1--1----|--3--5----------0--0--1----|
G#|--5--5--5--5--5--5--3--3---|--1--1--1--1--1--1--1--1----|--3--5----------0--0--1----|
PM                                                            *

A#|------------------------------------------------------------------------------------|
F |------------------------------------------------------------------------------------|
C#|------------------------------------------------------------------------------------|
G#|-----------------5---5-8------------------------------------------------------------|
D#|-1--1--1--1--6-8---8----------------------------------------------------------------|
G#|-1--1--1--1--------------0----------------------------------------------------------|
PM              * * * * * * *

Outro


A#|---------------------------|----------------------------|---------------------------|
F |---------------------------|----------------------------|---------------------------|
C#|---------------------------|----------------------------|---------------------------|
G#|---------------------------|----------------------------|---------------------------|
D#|--5---------------------5--|-------5----5---8-----------|--5---------------------5--|
G#|--5---------------------5--|----5--5----5---8-----------|--5---------------------5--|
PM                                 *

A#|------------------------------------------------------------------------------------|
F |------------------------------------------------------------------------------------|
C#|------------------------------------------------------------------------------------|
G#|------------------------------------------------------------------------------------|
D#|------1~----------------------------------------------------------------------------|
G#|------1~----------------------------------------------------------------------------|

********************
| /  slide up
| h  hammer-on
| ~  vibrato
| x  dead note
| PM palm mute
| *  what note is muted
********************

Suggest correction
Give kudos to tab author, rate the tab!
1 2 3 4 5
comments
print report bad tab
guest
You may want to rate the tab now too:
select rating
Wanna post a correction for this tab? Suggest correction