Oops, an error
Loading. Please wait.

Disappear Chords

295 views 24 this week
no commentswrite comment
1 2 3 4 5
2 more votes to show rating
add to favorites
launch autoscroll
font size
0
reset
transpose
0
reset
simplify chords
display chords
guitar tuner
Autoscroll
slow
fast
+/-
esc
set tempo
stop
Help us to improve Ultimate-Guitar.com Take our survey!
×
Author
Difficulty
Capo
novice
4th fret
Disappear (Re-imagined)
by Issues
from the Diamond Dreams EP

Standard Tuning
Capo On 4th Fret

[Chords] 
         E A D G B e
Cadd9...(0 3 2 0 3 0)
D/F#....(2 0 0 2 3 0)
D11.....(0 5 4 0 5 0)
Em7.....(0 2 2 0 3 0)
G.......(3 2 0 0 0 3)

Tab For The Intro And Verse 3 (Optional)

                            Cadd9            D11
e|-------------------------------------------------------------------|
B|-------------------------------------------------------------------|
G|-----------------------------------0---------------0---------------|
D|---------2---5---4---2p0-------2-------2-------4-------4-----------|
A|-0---3---------------------3---------------5-----------------------|
E|-------------------------------------------------------------------|

                            Cadd9            D11
e|-------------------------------------------------------------------|
B|-----------------------------------3---------------5---------------|
G|---------------------------------------0---------------0-----------|
D|---------2---5---4---2p0-------2---------------4-------------------|
A|-0---3---------------------3---------------5-----------------------|
E|-------------------------------------------------------------------|

                            Cadd9            D11
e|-------------------------------------------------------------------|
B|-------------------------------------------------------------------|
G|-----------------------------------0---------------0---------------|
D|---------2---5---4---2p0-------2-------2-------4-------4-----------|
A|-0---3---------------------3---------------5-----------------------|
E|-------------------------------------------------------------------|

                            Cadd9            D11
e|-------------------------------------------------------------------|
B|-----------------------------------3---------------5---------------|
G|---------------------------------------0-----------0---------------|
D|---------2---5---4---2p0-------2---------------4-------------------|
A|-0---3---------------------3---------------5-----------------------|
E|-------------------------------------------------------------------|


[Intro]
          Em7 Cadd9              G
Remember when I didn't need you?
       D/F#     Em7
Well I need you now, oh
           Cadd9        G
To hold my head up high say...

I just need a minute, sorry


[Verse 1]
Em7                     Cadd9
Some days I feel like a saint, I'm so alive
G                          D/F#
Some days I can't make any moves, it's like I have no spine
Em7
Can't do anything right
         Cadd9                               G
And when midnight comes I've run out of time to
                  D/F#
Make some kind of difference
Em7                       Cadd9
I constantly overlook the impact I've made
G                    D/F#
Maybe I'm longing to change my own face
Em7               Cadd9
To make you proud, I wanna make you proud
            G               D/F#
When you're looking down on me


[Chorus]
   Em7                   Cadd9
My mind's wide open like starry skies
  G                     D/F#
I ask God questions and wonder why
Em7
The hell that you're not here
Cadd9                G          D/F# 
I just wanna disappear with you now


[Verse 2]
                         Em7       Cadd9
But I'm a selfish broken heart and how I got this far
G                                               D/F#
Coping with the thought of holding you a minute longer in my arms 
Em7
Is beyond me
  Cadd9         G    D/F#
I set you free, free
Em7            Cadd9
A product of a free world
G                           D/F# 
Take wing over the coast of a better day
Em7              Cadd9
I'm stuck in my dark days
          G
But I can be stronger than you remember
             D/F#                        Em7
We're coming up on December, but I'm not cold


[Chorus]
                         Cadd9
My mind's wide open like starry skies
  G                     D/F#
I ask God questions and wonder why
Em7
The hell that you're not here
Cadd9                G          D/F# 
I just wanna disappear with you now

[Verse 3]
          Em7 Cadd9              G
Remember when I didn't need you?
       D/F#     Em7
Well I need you now
           Cadd9   G                        D/F#
To hold my head up high say it's all better child
          Em7 Cadd9         G D/F#    Em7
Remember when I was alone and crying out
            Cadd9
You will be missed
                   G
I'm gonna miss you
                             D/F#
But I know you're all better now
Suggest correction
Give kudos to tab author, rate the tab!
1 2 3 4 5
comments
print report bad tab
guest
You may want to rate the tab now too:
select rating
Wanna post a correction for this tab? Suggest correction